  0
SECTION
  2
HEADER
  9
$ACADVER
  1
AC1014
  9
$ACADMAINTVER
 70
     9
  9
$DWGCODEPAGE
  3
ANSI_1252
  9
$INSBASE
 10
0.0
 20
0.0
 30
0.0
  9
$EXTMIN
 10
23.13030115166617
 20
5.487109187673901
 30
-0.0015258207003612
  9
$EXTMAX
 10
34.53965503719896
 20
30.89567591678287
 30
0.0000000349246008
  9
$LIMMIN
 10
-0.5
 20
-0.5
  9
$LIMMAX
 10
5.0
 20
5.0
  9
$ORTHOMODE
 70
     0
  9
$REGENMODE
 70
     1
  9
$FILLMODE
 70
     1
  9
$QTEXTMODE
 70
     0
  9
$MIRRTEXT
 70
     1
  9
$DRAGMODE
 70
     2
  9
$LTSCALE
 40
1.0
  9
$OSMODE
 70
    37
  9
$ATTMODE
 70
     1
  9
$TEXTSIZE
 40
0.0
  9
$TRACEWID
 40
0.05
  9
$TEXTSTYLE
  7
STANDARD
  9
$CLAYER
  8
0
  9
$CELTYPE
  6
CONTINUOUS
  9
$CECOLOR
 62
   256
  9
$CELTSCALE
 40
1.0
  9
$DELOBJ
 70
     1
  9
$DISPSILH
 70
     0
  9
$DIMSCALE
 40
1.0
  9
$DIMASZ
 40
0.18
  9
$DIMEXO
 40
0.0625
  9
$DIMDLI
 40
0.38
  9
$DIMRND
 40
0.0
  9
$DIMDLE
 40
0.0
  9
$DIMEXE
 40
0.18
  9
$DIMTP
 40
0.0
  9
$DIMTM
 40
0.0
  9
$DIMTXT
 40
0.18
  9
$DIMCEN
 40
0.09
  9
$DIMTSZ
 40
0.0
  9
$DIMTOL
 70
     0
  9
$DIMLIM
 70
     0
  9
$DIMTIH
 70
     1
  9
$DIMTOH
 70
     1
  9
$DIMSE1
 70
     0
  9
$DIMSE2
 70
     0
  9
$DIMTAD
 70
     0
  9
$DIMZIN
 70
     0
  9
$DIMBLK
  1

  9
$DIMASO
 70
     1
  9
$DIMSHO
 70
     1
  9
$DIMPOST
  1

  9
$DIMAPOST
  1

  9
$DIMALT
 70
     0
  9
$DIMALTD
 70
     2
  9
$DIMALTF
 40
25.4
  9
$DIMLFAC
 40
1.0
  9
$DIMTOFL
 70
     0
  9
$DIMTVP
 40
0.0
  9
$DIMTIX
 70
     0
  9
$DIMSOXD
 70
     0
  9
$DIMSAH
 70
     0
  9
$DIMBLK1
  1

  9
$DIMBLK2
  1

  9
$DIMSTYLE
  2
STANDARD
  9
$DIMCLRD
 70
     0
  9
$DIMCLRE
 70
     0
  9
$DIMCLRT
 70
     0
  9
$DIMTFAC
 40
1.0
  9
$DIMGAP
 40
0.09
  9
$DIMJUST
 70
     0
  9
$DIMSD1
 70
     0
  9
$DIMSD2
 70
     0
  9
$DIMTOLJ
 70
     1
  9
$DIMTZIN
 70
     0
  9
$DIMALTZ
 70
     0
  9
$DIMALTTZ
 70
     0
  9
$DIMFIT
 70
     3
  9
$DIMUPT
 70
     0
  9
$DIMUNIT
 70
     2
  9
$DIMDEC
 70
     4
  9
$DIMTDEC
 70
     4
  9
$DIMALTU
 70
     2
  9
$DIMALTTD
 70
     2
  9
$DIMTXSTY
  7
STANDARD
  9
$DIMAUNIT
 70
     0
  9
$LUNITS
 70
     2
  9
$LUPREC
 70
     4
  9
$SKETCHINC
 40
0.1
  9
$FILLETRAD
 40
0.0
  9
$AUNITS
 70
     0
  9
$AUPREC
 70
     0
  9
$MENU
  1
acad
  9
$ELEVATION
 40
0.0
  9
$PELEVATION
 40
0.0
  9
$THICKNESS
 40
0.0
  9
$LIMCHECK
 70
     0
  9
$BLIPMODE
 70
     0
  9
$CHAMFERA
 40
0.0
  9
$CHAMFERB
 40
0.0
  9
$CHAMFERC
 40
0.0
  9
$CHAMFERD
 40
0.0
  9
$SKPOLY
 70
     0
  9
$TDCREATE
 40
2454307.560729930
  9
$TDUPDATE
 40
2454307.563302673
  9
$TDINDWG
 40
0.0025835995
  9
$TDUSRTIMER
 40
0.0025835995
  9
$USRTIMER
 70
     1
  9
$ANGBASE
 50
0.0
  9
$ANGDIR
 70
     0
  9
$PDMODE
 70
     0
  9
$PDSIZE
 40
0.0
  9
$PLINEWID
 40
0.0
  9
$COORDS
 70
     1
  9
$SPLFRAME
 70
     0
  9
$SPLINETYPE
 70
     6
  9
$SPLINESEGS
 70
     8
  9
$ATTDIA
 70
     0
  9
$ATTREQ
 70
     1
  9
$HANDLING
 70
-16383
  9
$HANDSEED
  5
3B1
  9
$SURFTAB1
 70
     6
  9
$SURFTAB2
 70
     6
  9
$SURFTYPE
 70
     6
  9
$SURFU
 70
     6
  9
$SURFV
 70
     6
  9
$UCSNAME
  2

  9
$UCSORG
 10
0.0
 20
0.0
 30
0.0
  9
$UCSXDIR
 10
1.0
 20
0.0
 30
0.0
  9
$UCSYDIR
 10
0.0
 20
1.0
 30
0.0
  9
$PUCSNAME
  2

  9
$PUCSORG
 10
0.0
 20
0.0
 30
0.0
  9
$PUCSXDIR
 10
1.0
 20
0.0
 30
0.0
  9
$PUCSYDIR
 10
0.0
 20
1.0
 30
0.0
  9
$USERI1
 70
     0
  9
$USERI2
 70
     0
  9
$USERI3
 70
     0
  9
$USERI4
 70
     0
  9
$USERI5
 70
     0
  9
$USERR1
 40
0.0
  9
$USERR2
 40
0.0
  9
$USERR3
 40
0.0
  9
$USERR4
 40
0.0
  9
$USERR5
 40
0.0
  9
$WORLDVIEW
 70
     1
  9
$SHADEDGE
 70
     3
  9
$SHADEDIF
 70
    70
  9
$TILEMODE
 70
     1
  9
$MAXACTVP
 70
    64
  9
$PINSBASE
 10
0.0
 20
0.0
 30
0.0
  9
$PLIMCHECK
 70
     0
  9
$PEXTMIN
 10
1.000000000000000E+20
 20
1.000000000000000E+20
 30
1.000000000000000E+20
  9
$PEXTMAX
 10
-1.000000000000000E+20
 20
-1.000000000000000E+20
 30
-1.000000000000000E+20
  9
$PLIMMIN
 10
-0.7112501249538626
 20
-0.6979166691697488
  9
$PLIMMAX
 10
10.28874963475024
 20
7.802083090534359
  9
$UNITMODE
 70
     0
  9
$VISRETAIN
 70
     0
  9
$PLINEGEN
 70
     1
  9
$PSLTSCALE
 70
     0
  9
$TREEDEPTH
 70
  3020
  9
$PICKSTYLE
 70
     1
  9
$CMLSTYLE
  2
STANDARD
  9
$CMLJUST
 70
     0
  9
$CMLSCALE
 40
1.0
  9
$PROXYGRAPHICS
 70
     0
  9
$MEASUREMENT
 70
     0
  0
ENDSEC
  0
SECTION
  2
CLASSES
  0
CLASS
  1
LWPOLYLINE
  2
AcDbPolyline
  3
AutoCAD 2000
 90
        0
280
     0
281
     1
  0
CLASS
  1
IMAGE
  2
AcDbRasterImage
  3
ISM
 90
      127
280
     0
281
     1
  0
CLASS
  1
OLE2FRAME
  2
AcDbOle2Frame
  3
AutoCAD 2000
 90
        0
280
     0
281
     1
  0
CLASS
  1
HATCH
  2
AcDbHatch
  3
AutoCAD 2000
 90
        0
280
     0
281
     1
  0
CLASS
  1
DICTIONARYVAR
  2
AcDbDictionaryVar
  3
AutoCAD 2000
 90
        0
280
     0
281
     0
  0
CLASS
  1
RASTERVARIABLES
  2
AcDbRasterVariables
  3
ISM
 90
        0
280
     0
281
     0
  0
CLASS
  1
IMAGEDEF
  2
AcDbRasterImageDef
  3
ISM
 90
        0
280
     0
281
     0
  0
CLASS
  1
IMAGEDEF_REACTOR
  2
AcDbRasterImageDefReactor
  3
ISM
 90
        1
280
     0
281
     0
  0
CLASS
  1
IDBUFFER
  2
AcDbIdBuffer
  3
AutoCAD 2000
 90
        0
280
     0
281
     0
  0
CLASS
  1
SPATIAL_FILTER
  2
AcDbSpatialFilter
  3
AutoCAD 2000
 90
        0
280
     0
281
     0
  0
CLASS
  1
XRECORD
  2
AcDbXrecord
  3
AutoCAD 2000
 90
        0
280
     0
281
     0
  0
CLASS
  1
SORTENTSTABLE
  2
AcDbSortentsTable
  3
AutoCAD 2000
 90
        0
280
     0
281
     0
  0
CLASS
  1
LAYER_INDEX
  2
AcDbLayerIndex
  3
AutoCAD 2000
 90
        0
280
     0
281
     0
  0
CLASS
  1
SPATIAL_INDEX
  2
AcDbSpatialIndex
  3
AutoCAD 2000
 90
        0
280
     0
281
     0
  0
CLASS
  1
OBJECT_PTR
  2
CAseDLPNTableRecord
  3
ASE-LPNTableRecord
 90
        1
280
     0
281
     0
  0
CLASS
  1
LAYOUT
  2
AcDbLayout
  3
AutoCAD 2000
 90
        0
280
     0
281
     0
  0
CLASS
  1
PLOTSETTINGS
  2
AcDbPlotSettings
  3
AutoCAD 2000
 90
        0
280
     0
281
     0
  0
CLASS
  1
ACDBDICTIONARYWDFLT
  2
AcDbDictionaryWithDefault
  3
AutoCAD 2000
 90
        0
280
     0
281
     0
  0
CLASS
  1
ACDBPLACEHOLDER
  2
AcDbPlaceHolder
  3
AutoCAD 2000
 90
        0
280
     0
281
     0
  0
CLASS
  1
VBA_PROJECT
  2
AcDbVbaProject
  3
acadvba
 90
        0
280
     0
281
     0
  0
CLASS
  1
WIPEOUT
  2
AcDbWipeout
  3
WipeOut|AutoCAD Express Tool|expresstools@autodesk.com
 90
      127
280
     0
281
     1
  0
CLASS
  1
WIPEOUTVARIABLES
  2
AcDbWipeoutVariables
  3
WipeOut|AutoCAD Express Tool|expresstools@autodesk.com
 90
        0
280
     0
281
     0
  0
CLASS
  1
RTEXT
  2
RText
  3
RText|AutoCAD Express Tool|expresstools@autodesk.com
 90
        0
280
     0
281
     1
  0
CLASS
  1
ARCALIGNEDTEXT
  2
AcDbArcAlignedText
  3
ATEXT|AutoCAD Express Tool|expresstools@autodesk.com
 90
        0
280
     0
281
     1
  0
CLASS
  1
ACAD_PROXY_OBJECT_WRAPPER
  2
AcDbProxyObjectWrapper
  3
AutoCAD 2000
 90
        0
280
     0
281
     0
  0
CLASS
  1
LONG_TRANSACTION
  2
AcDbLongTransaction
  3
AutoCAD 2000
 90
        0
280
     0
281
     0
  0
CLASS
  1
LWPOLYLINE
  2
AcDbPolyline
  3
AutoCAD 2000
 90
        0
280
     0
281
     1
  0
CLASS
  1
HATCH
  2
AcDbHatch
  3
AutoCAD 2000
 90
        0
280
     0
281
     1
  0
CLASS
  1
XRECORD
  2
AcDbXrecord
  3
AutoCAD 2000
 90
        0
280
     0
281
     0
  0
ENDSEC
  0
SECTION
  2
TABLES
  0
TABLE
  2
VPORT
  5
7
330
0
100
AcDbSymbolTable
 70
    19
  0
VPORT
  5
2CB
330
7
100
AcDbSymbolTableRecord
100
AcDbViewportTableRecord
  2
L1
 70
     0
 10
0.0
 20
0.0
 11
1.0
 21
1.0
 12
0.0
 22
0.0
 13
0.0
 23
0.0
 14
1.0
 24
1.0
 15
0.0
 25
0.0
 16
0.7188730927569434
 26
-0.5850486126764432
 36
0.3754192287502549
 17
0.0
 27
0.0
 37
0.0
 40
47.7180219471436
 41
0.688564
 42
50.0
 43
23.56837313611958
 44
-23.56837313611958
 50
0.0
 51
0.0
 71
    16
 72
   100
 73
     1
 74
     1
 75
     0
 76
     0
 77
     0
 78
     0
  0
VPORT
  5
2CC
330
7
100
AcDbSymbolTableRecord
100
AcDbViewportTableRecord
  2
L2
 70
     0
 10
0.0
 20
0.0
 11
0.5
 21
1.0
 12
0.0
 22
0.0
 13
0.0
 23
0.0
 14
1.0
 24
1.0
 15
0.0
 25
0.0
 16
0.0
 26
-1.0
 36
0.0
 17
0.0
 27
0.0
 37
0.0
 40
45.98706953389187
 41
0.688564
 42
50.0
 43
23.767074340738
 44
-23.767074340738
 50
0.0
 51
0.0
 71
    16
 72
   100
 73
     1
 74
     1
 75
     0
 76
     0
 77
     0
 78
     0
  0
VPORT
  5
2CD
330
7
100
AcDbSymbolTableRecord
100
AcDbViewportTableRecord
  2
L2
 70
     0
 10
0.5
 20
0.0
 11
1.0
 21
1.0
 12
0.0
 22
0.0
 13
0.0
 23
0.0
 14
1.0
 24
1.0
 15
0.0
 25
0.0
 16
1.0
 26
0.0
 36
0.0
 17
0.0
 27
0.0
 37
0.0
 40
45.98706953389187
 41
0.688564
 42
50.0
 43
23.23767241373075
 44
-23.23767241373075
 50
0.0
 51
0.0
 71
    16
 72
   100
 73
     1
 74
     1
 75
     0
 76
     0
 77
     0
 78
     0
  0
VPORT
  5
2CE
330
7
100
AcDbSymbolTableRecord
100
AcDbViewportTableRecord
  2
L3
 70
     0
 10
0.0
 20
0.5
 11
1.0
 21
1.0
 12
0.0
 22
0.0
 13
0.0
 23
0.0
 14
1.0
 24
1.0
 15
0.0
 25
0.0
 16
0.0
 26
0.0
 36
1.0
 17
0.0
 27
0.0
 37
0.0
 40
6.719160104986876
 41
0.6885640000000001
 42
50.0
 43
22.99353476694593
 44
-22.99353476694593
 50
0.0
 51
0.0
 71
    16
 72
   100
 73
     1
 74
     1
 75
     0
 76
     0
 77
     0
 78
     0
  0
VPORT
  5
2CF
330
7
100
AcDbSymbolTableRecord
100
AcDbViewportTableRecord
  2
L3
 70
     0
 10
0.0
 20
0.0
 11
1.0
 21
0.5
 12
0.0
 22
0.0
 13
0.0
 23
0.0
 14
1.0
 24
1.0
 15
0.0
 25
0.0
 16
0.0
 26
-1.0
 36
0.0
 17
0.0
 27
0.0
 37
0.0
 40
45.98706953389187
 41
0.688564
 42
50.0
 43
23.767074340738
 44
-23.767074340738
 50
0.0
 51
0.0
 71
    16
 72
   100
 73
     1
 74
     1
 75
     0
 76
     0
 77
     0
 78
     0
  0
VPORT
  5
2D0
330
7
100
AcDbSymbolTableRecord
100
AcDbViewportTableRecord
  2
L4
 70
     0
 10
0.0
 20
0.5
 11
0.5
 21
1.0
 12
0.0
 22
0.0
 13
0.0
 23
0.0
 14
1.0
 24
1.0
 15
0.0
 25
0.0
 16
0.0
 26
0.0
 36
1.0
 17
0.0
 27
0.0
 37
0.0
 40
6.719160104986876
 41
0.6885640000000001
 42
50.0
 43
22.99353476694593
 44
-22.99353476694593
 50
0.0
 51
0.0
 71
    16
 72
   100
 73
     1
 74
     1
 75
     0
 76
     0
 77
     0
 78
     0
  0
VPORT
  5
2D1
330
7
100
AcDbSymbolTableRecord
100
AcDbViewportTableRecord
  2
L4
 70
     0
 10
0.0
 20
0.0
 11
0.5
 21
0.5
 12
0.0
 22
0.0
 13
0.0
 23
0.0
 14
1.0
 24
1.0
 15
0.0
 25
0.0
 16
0.0
 26
-1.0
 36
0.0
 17
0.0
 27
0.0
 37
0.0
 40
45.98706953389187
 41
0.688564
 42
50.0
 43
23.767074340738
 44
-23.767074340738
 50
0.0
 51
0.0
 71
    16
 72
   100
 73
     1
 74
     1
 75
     0
 76
     0
 77
     0
 78
     0
  0
VPORT
  5
2D2
330
7
100
AcDbSymbolTableRecord
100
AcDbViewportTableRecord
  2
L4
 70
     0
 10
0.5
 20
0.0
 11
1.0
 21
0.5
 12
0.0
 22
0.0
 13
0.0
 23
0.0
 14
1.0
 24
1.0
 15
0.0
 25
0.0
 16
1.0
 26
0.0
 36
0.0
 17
0.0
 27
0.0
 37
0.0
 40
45.98706953389187
 41
0.688564
 42
50.0
 43
23.23767241373075
 44
-23.23767241373075
 50
0.0
 51
0.0
 71
    16
 72
   100
 73
     1
 74
     1
 75
     0
 76
     0
 77
     0
 78
     0
  0
VPORT
  5
2D3
330
7
100
AcDbSymbolTableRecord
100
AcDbViewportTableRecord
  2
L4
 70
     0
 10
0.5
 20
0.5
 11
1.0
 21
1.0
 12
0.0
 22
0.0
 13
0.0
 23
0.0
 14
1.0
 24
1.0
 15
0.0
 25
0.0
 16
0.5773502691896259
 26
-0.5773502691896259
 36
0.5773502691896259
 17
0.0
 27
0.0
 37
0.0
 40
45.201983775164
 41
0.688564
 42
50.0
 43
23.5529013612764
 44
-23.5529013612764
 50
0.0
 51
0.0
 71
    16
 72
   100
 73
     1
 74
     1
 75
     0
 76
     0
 77
     0
 78
     0
  0
VPORT
  5
2D4
330
7
100
AcDbSymbolTableRecord
100
AcDbViewportTableRecord
  2
L6
 70
     0
 10
0.0
 20
0.5
 11
0.3333333333333334
 21
1.0
 12
0.0
 22
0.0
 13
0.0
 23
0.0
 14
1.0
 24
1.0
 15
0.0
 25
0.0
 16
0.7188730927569434
 26
-0.5850486126764432
 36
0.3754192287502549
 17
0.0
 27
0.0
 37
0.0
 40
47.7180219471436
 41
0.688564
 42
50.0
 43
23.56837313611958
 44
-23.56837313611958
 50
0.0
 51
0.0
 71
    16
 72
   100
 73
     1
 74
     1
 75
     0
 76
     0
 77
     0
 78
     0
  0
VPORT
  5
2D5
330
7
100
AcDbSymbolTableRecord
100
AcDbViewportTableRecord
  2
L6
 70
     0
 10
0.0
 20
0.0
 11
0.3333333333333334
 21
0.5
 12
0.0
 22
0.0
 13
0.0
 23
0.0
 14
1.0
 24
1.0
 15
0.0
 25
0.0
 16
-1.0
 26
0.0
 36
0.0
 17
0.0
 27
0.0
 37
0.0
 40
45.98706953389187
 41
0.688564
 42
50.0
 43
23.23767241373075
 44
-23.23767241373075
 50
0.0
 51
0.0
 71
    16
 72
   100
 73
     1
 74
     1
 75
     0
 76
     0
 77
     0
 78
     0
  0
VPORT
  5
2D6
330
7
100
AcDbSymbolTableRecord
100
AcDbViewportTableRecord
  2
L6
 70
     0
 10
0.3333333333333334
 20
0.5
 11
0.6666666666666666
 21
1.0
 12
0.0
 22
0.0
 13
0.0
 23
0.0
 14
1.0
 24
1.0
 15
0.0
 25
0.0
 16
0.0
 26
0.0
 36
1.0
 17
0.0
 27
0.0
 37
0.0
 40
6.719160104986876
 41
0.6885640000000001
 42
50.0
 43
22.99353476694593
 44
-22.99353476694593
 50
0.0
 51
0.0
 71
    16
 72
   100
 73
     1
 74
     1
 75
     0
 76
     0
 77
     0
 78
     0
  0
VPORT
  5
2D7
330
7
100
AcDbSymbolTableRecord
100
AcDbViewportTableRecord
  2
L6
 70
     0
 10
0.3333333333333334
 20
0.0
 11
0.6666666666666666
 21
0.5
 12
0.0
 22
0.0
 13
0.0
 23
0.0
 14
1.0
 24
1.0
 15
0.0
 25
0.0
 16
0.0
 26
-1.0
 36
0.0
 17
0.0
 27
0.0
 37
0.0
 40
45.98706953389187
 41
0.688564
 42
50.0
 43
23.767074340738
 44
-23.767074340738
 50
0.0
 51
0.0
 71
    16
 72
   100
 73
     1
 74
     1
 75
     0
 76
     0
 77
     0
 78
     0
  0
VPORT
  5
2D8
330
7
100
AcDbSymbolTableRecord
100
AcDbViewportTableRecord
  2
L6
 70
     0
 10
0.6666666666666666
 20
0.5
 11
1.0
 21
1.0
 12
0.0
 22
0.0
 13
0.0
 23
0.0
 14
1.0
 24
1.0
 15
0.0
 25
0.0
 16
0.5773502691896259
 26
-0.5773502691896259
 36
0.5773502691896259
 17
0.0
 27
0.0
 37
0.0
 40
45.201983775164
 41
0.688564
 42
50.0
 43
23.5529013612764
 44
-23.5529013612764
 50
0.0
 51
0.0
 71
    16
 72
   100
 73
     1
 74
     1
 75
     0
 76
     0
 77
     0
 78
     0
  0
VPORT
  5
2D9
330
7
100
AcDbSymbolTableRecord
100
AcDbViewportTableRecord
  2
L6
 70
     0
 10
0.6666666666666666
 20
0.0
 11
1.0
 21
0.5
 12
0.0
 22
0.0
 13
0.0
 23
0.0
 14
1.0
 24
1.0
 15
0.0
 25
0.0
 16
1.0
 26
0.0
 36
0.0
 17
0.0
 27
0.0
 37
0.0
 40
45.98706953389187
 41
0.688564
 42
50.0
 43
23.23767241373075
 44
-23.23767241373075
 50
0.0
 51
0.0
 71
    16
 72
   100
 73
     1
 74
     1
 75
     0
 76
     0
 77
     0
 78
     0
  0
VPORT
  5
38B
330
7
100
AcDbSymbolTableRecord
100
AcDbViewportTableRecord
  2
*ACTIVE
 70
     0
 10
0.0
 20
0.0
 11
1.0
 21
1.0
 12
28.83497809443257
 22
18.19139255222839
 13
0.0
 23
0.0
 14
1.0
 24
1.0
 15
0.0
 25
0.0
 16
0.0
 26
0.0
 36
1.0
 17
0.0
 27
0.0
 37
0.0
 40
25.60916067697036
 41
1.549407114624505
 42
50.0
 43
23.56837313611958
 44
-23.56837313611958
 50
0.0
 51
0.0
 71
    16
 72
   100
 73
     1
 74
     1
 75
     0
 76
     0
 77
     0
 78
     0
  0
ENDTAB
  0
TABLE
  2
LTYPE
  5
4
330
0
100
AcDbSymbolTable
 70
     7
  0
LTYPE
  5
11
330
4
100
AcDbSymbolTableRecord
100
AcDbLinetypeTableRecord
  2
BYBLOCK
 70
     0
  3

 72
    65
 73
     0
 40
0.0
  0
LTYPE
  5
12
330
4
100
AcDbSymbolTableRecord
100
AcDbLinetypeTableRecord
  2
BYLAYER
 70
     0
  3

 72
    65
 73
     0
 40
0.0
  0
LTYPE
  5
13
330
4
100
AcDbSymbolTableRecord
100
AcDbLinetypeTableRecord
  2
CONTINUOUS
 70
     0
  3
Solid line
 72
    65
 73
     0
 40
0.0
  0
LTYPE
  5
24
330
4
100
AcDbSymbolTableRecord
100
AcDbLinetypeTableRecord
  2
DASHED
 70
     0
  3
__ __ __ __ __ __ __ __ __
 72
    65
 73
     2
 40
25.72
 49
12.86
 74
     0
 49
-12.86
 74
     0
  0
LTYPE
  5
25
330
4
100
AcDbSymbolTableRecord
100
AcDbLinetypeTableRecord
  2
HIDDEN
 70
     0
  3
_ _ _ _ _ _ _ _ _ _ _ _ _ _ _
 72
    65
 73
     2
 40
0.5
 49
0.25
 74
     0
 49
-0.25
 74
     0
  0
LTYPE
  5
26
330
4
100
AcDbSymbolTableRecord
100
AcDbLinetypeTableRecord
  2
PHANTOM
 70
     0
  3
____ _ _ ____ _ _ _____ _ _ ____
 72
    65
 73
     6
 40
50.5
 49
18.0
 74
     0
 49
-6.5
 74
     0
 49
6.5
 74
     0
 49
-6.5
 74
     0
 49
6.5
 74
     0
 49
-6.5
 74
     0
  0
LTYPE
  5
27
330
4
100
AcDbSymbolTableRecord
100
AcDbLinetypeTableRecord
  2
CENTER
 70
     0
  3
____ _ ____ _ ____ _ ____
 72
    65
 73
     4
 40
47.5
 49
22.0
 74
     0
 49
-8.5
 74
     0
 49
8.5
 74
     0
 49
-8.5
 74
     0
  0
LTYPE
  5
28
330
4
100
AcDbSymbolTableRecord
100
AcDbLinetypeTableRecord
  2
DOT
 70
     0
  3
.........................
 72
    65
 73
     2
 40
10.0
 49
0.0
 74
     0
 49
-10.0
 74
     0
  0
LTYPE
  5
29
330
4
100
AcDbSymbolTableRecord
100
AcDbLinetypeTableRecord
  2
DASHDOT
 70
     0
  3
_._._._._._._._._._._._._._._._.
 72
    65
 73
     4
 40
70.0
 49
31.0
 74
     0
 49
-13.0
 74
     0
 49
13.0
 74
     0
 49
-13.0
 74
     0
  0
ENDTAB
  0
TABLE
  2
LAYER
  5
2
330
0
100
AcDbSymbolTable
 70
     3
  0
LAYER
  5
14
330
2
100
AcDbSymbolTableRecord
100
AcDbLayerTableRecord
  2
0
 70
     0
 62
     7
  6
CONTINUOUS
  0
LAYER
  5
2B
330
2
100
AcDbSymbolTableRecord
100
AcDbLayerTableRecord
  2
TFR-TRI
 70
     0
 62
     7
  6
CONTINUOUS
  0
LAYER
  5
2E1
330
2
100
AcDbSymbolTableRecord
100
AcDbLayerTableRecord
  2
DEFPOINTS
 70
     0
 62
     7
  6
CONTINUOUS
  0
ENDTAB
  0
TABLE
  2
STYLE
  5
3
330
0
100
AcDbSymbolTable
 70
     1
  0
STYLE
  5
17
330
3
100
AcDbSymbolTableRecord
100
AcDbTextStyleTableRecord
  2
STANDARD
 70
     0
 40
0.0
 41
1.0
 50
0.0
 71
     0
 42
0.0
  3
txt
  4

  0
ENDTAB
  0
TABLE
  2
VIEW
  5
5
330
0
100
AcDbSymbolTable
 70
     8
  0
VIEW
  5
2C2
330
5
100
AcDbSymbolTableRecord
100
AcDbViewTableRecord
  2
TOP
 70
     0
 40
6.719160104986876
 10
0.0
 20
0.0
 41
12.02849643794525
 11
0.0
 21
0.0
 31
1.0
 12
0.0
 22
0.0
 32
0.0
 42
50.0
 43
22.99353476694593
 44
-22.99353476694593
 50
0.0
 71
    16
  0
VIEW
  5
2C3
330
5
100
AcDbSymbolTableRecord
100
AcDbViewTableRecord
  2
FRONT
 70
     0
 40
45.98706953389187
 10
0.0
 20
0.0
 41
12.02849643794525
 11
0.0
 21
-1.0
 31
0.0
 12
0.0
 22
0.0
 32
0.0
 42
50.0
 43
23.767074340738
 44
-23.767074340738
 50
0.0
 71
    16
  0
VIEW
  5
2C4
330
5
100
AcDbSymbolTableRecord
100
AcDbViewTableRecord
  2
RIGHT
 70
     0
 40
45.98706953389187
 10
0.0
 20
0.0
 41
6.719160104986876
 11
1.0
 21
0.0
 31
0.0
 12
0.0
 22
0.0
 32
0.0
 42
50.0
 43
23.23767241373075
 44
-23.23767241373075
 50
0.0
 71
    16
  0
VIEW
  5
2C5
330
5
100
AcDbSymbolTableRecord
100
AcDbViewTableRecord
  2
BACK
 70
     0
 40
45.98706953389187
 10
0.0
 20
0.0
 41
12.02849643794525
 11
0.0
 21
1.0
 31
0.0
 12
0.0
 22
0.0
 32
0.0
 42
50.0
 43
23.767074340738
 44
-23.767074340738
 50
0.0
 71
    16
  0
VIEW
  5
2C6
330
5
100
AcDbSymbolTableRecord
100
AcDbViewTableRecord
  2
BOTTOM
 70
     0
 40
6.719160104986876
 10
0.0
 20
0.0
 41
12.02849643794525
 11
0.0
 21
0.0
 31
-1.0
 12
0.0
 22
0.0
 32
0.0
 42
50.0
 43
22.99353476694593
 44
-22.99353476694593
 50
180.0
 71
    16
  0
VIEW
  5
2C7
330
5
100
AcDbSymbolTableRecord
100
AcDbViewTableRecord
  2
LEFT
 70
     0
 40
45.98706953389187
 10
0.0
 20
0.0
 41
6.719160104986876
 11
-1.0
 21
0.0
 31
0.0
 12
0.0
 22
0.0
 32
0.0
 42
50.0
 43
23.23767241373075
 44
-23.23767241373075
 50
0.0
 71
    16
  0
VIEW
  5
2C8
330
5
100
AcDbSymbolTableRecord
100
AcDbViewTableRecord
  2
TFR-ISO
 70
     0
 40
45.201983775164
 10
0.0
 20
0.0
 41
13.25659507286365
 11
0.5773502691896259
 21
-0.5773502691896259
 31
0.5773502691896259
 12
0.0
 22
0.0
 32
0.0
 42
50.0
 43
23.5529013612764
 44
-23.5529013612764
 50
0.0
 71
    16
  0
VIEW
  5
2C9
330
5
100
AcDbSymbolTableRecord
100
AcDbViewTableRecord
  2
TFR-TRI
 70
     0
 40
47.7180219471436
 10
0.0
 20
0.0
 41
12.80402770338422
 11
0.7188730927569434
 21
-0.5850486126764432
 31
0.3754192287502549
 12
0.0
 22
0.0
 32
0.0
 42
50.0
 43
23.56837313611958
 44
-23.56837313611958
 50
0.0
 71
    16
  0
ENDTAB
  0
TABLE
  2
UCS
  5
6
330
0
100
AcDbSymbolTable
 70
     0
  0
ENDTAB
  0
TABLE
  2
APPID
  5
8
330
0
100
AcDbSymbolTable
 70
     1
  0
APPID
  5
16
330
8
100
AcDbSymbolTableRecord
100
AcDbRegAppTableRecord
  2
ACAD
 70
     0
  0
ENDTAB
  0
TABLE
  2
DIMSTYLE
  5
9
330
0
100
AcDbSymbolTable
 70
     1
  0
DIMSTYLE
105
18
330
9
100
AcDbSymbolTableRecord
100
AcDbDimStyleTableRecord
  2
STANDARD
 70
     0
  3

  4

  5

  6

  7

 40
1.0
 41
0.18
 42
0.0625
 43
0.38
 44
0.18
 45
0.0
 46
0.0
 47
0.0
 48
0.0
140
0.18
141
0.09
142
0.0
143
25.4
144
1.0
145
0.0
146
1.0
147
0.09
 71
     0
 72
     0
 73
     1
 74
     1
 75
     0
 76
     0
 77
     0
 78
     0
170
     0
171
     2
172
     0
173
     0
174
     0
175
     0
176
     0
177
     0
178
     0
270
     2
271
     4
272
     4
273
     2
274
     2
340
17
275
     0
280
     0
281
     0
282
     0
283
     1
284
     0
285
     0
286
     0
287
     3
288
     0
  0
ENDTAB
  0
TABLE
  2
BLOCK_RECORD
  5
1
330
0
100
AcDbSymbolTable
 70
     2
  0
BLOCK_RECORD
  5
A
102
{ACAD_XDICTIONARY
360
3AD
102
}
330
1
100
AcDbSymbolTableRecord
100
AcDbBlockTableRecord
  2
*MODEL_SPACE
  0
BLOCK_RECORD
  5
B
102
{ACAD_XDICTIONARY
360
3AF
102
}
330
1
100
AcDbSymbolTableRecord
100
AcDbBlockTableRecord
  2
*PAPER_SPACE
  0
BLOCK_RECORD
  5
2E2
330
1
100
AcDbSymbolTableRecord
100
AcDbBlockTableRecord
  2
*D0
  0
BLOCK_RECORD
  5
2F0
330
1
100
AcDbSymbolTableRecord
100
AcDbBlockTableRecord
  2
*D1
  0
ENDTAB
  0
ENDSEC
  0
SECTION
  2
BLOCKS
  0
BLOCK
  5
D
330
A
100
AcDbEntity
  8
0
100
AcDbBlockBegin
  2
*MODEL_SPACE
 70
     0
 10
0.0
 20
0.0
 30
0.0
  3
*MODEL_SPACE
  1

  0
ENDBLK
  5
E
330
A
100
AcDbEntity
  8
0
100
AcDbBlockEnd
  0
BLOCK
  5
F
330
B
100
AcDbEntity
 67
     1
  8
0
100
AcDbBlockBegin
  2
*PAPER_SPACE
 70
     0
 10
0.0
 20
0.0
 30
0.0
  3
*PAPER_SPACE
  1

  0
ENDBLK
  5
10
330
B
100
AcDbEntity
 67
     1
  8
0
100
AcDbBlockEnd
  0
BLOCK
  5
2ED
330
2E2
100
AcDbEntity
  8
0
100
AcDbBlockBegin
  2
*D0
 70
     1
 10
0.0
 20
0.0
 30
0.0
  3
*D0
  1

  0
LINE
  5
2E3
330
2E2
100
AcDbEntity
  8
0
  6
CONTINUOUS
 62
     0
100
AcDbLine
 10
34.60108566284179
 20
24.61322402954101
 30
0.0
 11
36.76760906820856
 21
24.61322402954101
 31
0.0
  0
LINE
  5
2E4
330
2E2
100
AcDbEntity
  8
0
  6
CONTINUOUS
 62
     0
100
AcDbLine
 10
34.60108566284179
 20
5.599331378936767
 30
0.0
 11
36.76760906820855
 21
5.599331378936767
 31
0.0
  0
LINE
  5
2E5
330
2E2
100
AcDbEntity
  8
0
  6
CONTINUOUS
 62
     0
100
AcDbLine
 10
36.58760906820856
 20
24.43322402954101
 30
0.0
 11
36.58760906820855
 21
15.28627770423889
 31
0.0
  0
LINE
  5
2E6
330
2E2
100
AcDbEntity
  8
0
  6
CONTINUOUS
 62
     0
100
AcDbLine
 10
36.58760906820855
 20
5.779331378936767
 30
0.0
 11
36.58760906820855
 21
14.92627770423889
 31
0.0
  0
SOLID
  5
2E7
330
2E2
100
AcDbEntity
  8
0
  6
CONTINUOUS
 62
     0
100
AcDbTrace
 10
36.55760906820856
 20
24.43322402954101
 30
0.0
 11
36.61760906820856
 21
24.43322402954101
 31
0.0
 12
36.58760906820856
 22
24.61322402954101
 32
0.0
 13
36.58760906820856
 23
24.61322402954101
 33
0.0
  0
SOLID
  5
2E8
330
2E2
100
AcDbEntity
  8
0
  6
CONTINUOUS
 62
     0
100
AcDbTrace
 10
36.55760906820855
 20
5.779331378936767
 30
0.0
 11
36.61760906820855
 21
5.779331378936767
 31
0.0
 12
36.58760906820855
 22
5.599331378936767
 32
0.0
 13
36.58760906820855
 23
5.599331378936767
 33
0.0
  0
MTEXT
  5
2E9
330
2E2
100
AcDbEntity
  8
0
  6
CONTINUOUS
 62
     0
100
AcDbMText
 10
36.58760906820855
 20
15.10627770423889
 30
0.0
 40
0.18
 41
0.0
 71
     5
 72
     1
  1
\A1;19.0139
1001
ACAD
1000
MTEXTBEGIN
1070
    73
1070
     1
1070
    44
1040
1.0
1070
    74
1070
     0
1000
MTEXTEND
  0
POINT
  5
2EA
330
2E2
100
AcDbEntity
  8
DEFPOINTS
  6
CONTINUOUS
 62
     0
100
AcDbPoint
 10
34.53858566284179
 20
24.61322402954101
 30
0.0
  0
POINT
  5
2EB
330
2E2
100
AcDbEntity
  8
DEFPOINTS
  6
CONTINUOUS
 62
     0
100
AcDbPoint
 10
34.53858566284179
 20
5.599331378936767
 30
0.0
  0
POINT
  5
2EC
330
2E2
100
AcDbEntity
  8
DEFPOINTS
  6
CONTINUOUS
 62
     0
100
AcDbPoint
 10
36.58760906820855
 20
5.599331378936767
 30
0.0
  0
ENDBLK
  5
2EE
330
2E2
100
AcDbEntity
  8
0
100
AcDbBlockEnd
  0
BLOCK
  5
2FB
330
2F0
100
AcDbEntity
  8
0
100
AcDbBlockBegin
  2
*D1
 70
     1
 10
0.0
 20
0.0
 30
0.0
  3
*D1
  1

  0
LINE
  5
2F1
330
2F0
100
AcDbEntity
  8
0
  6
CONTINUOUS
 62
     0
100
AcDbLine
 10
26.46363067626953
 20
22.11322402954101
 30
0.0
 11
27.10293725975803
 21
22.11322402954101
 31
0.0
  0
LINE
  5
2F2
330
2F0
100
AcDbEntity
  8
0
  6
CONTINUOUS
 62
     0
100
AcDbLine
 10
26.46363067626953
 20
18.61322402954101
 30
0.0
 11
27.10293725975803
 21
18.61322402954101
 31
0.0
  0
LINE
  5
2F3
330
2F0
100
AcDbEntity
  8
0
  6
CONTINUOUS
 62
     0
100
AcDbLine
 10
26.92293725975803
 20
21.93322402954101
 30
0.0
 11
26.92293725975803
 21
20.54322402954101
 31
0.0
  0
LINE
  5
2F4
330
2F0
100
AcDbEntity
  8
0
  6
CONTINUOUS
 62
     0
100
AcDbLine
 10
26.92293725975803
 20
18.79322402954101
 30
0.0
 11
26.92293725975803
 21
20.18322402954101
 31
0.0
  0
SOLID
  5
2F5
330
2F0
100
AcDbEntity
  8
0
  6
CONTINUOUS
 62
     0
100
AcDbTrace
 10
26.89293725975803
 20
21.93322402954101
 30
0.0
 11
26.95293725975803
 21
21.93322402954101
 31
0.0
 12
26.92293725975803
 22
22.11322402954101
 32
0.0
 13
26.92293725975803
 23
22.11322402954101
 33
0.0
  0
SOLID
  5
2F6
330
2F0
100
AcDbEntity
  8
0
  6
CONTINUOUS
 62
     0
100
AcDbTrace
 10
26.89293725975803
 20
18.79322402954101
 30
0.0
 11
26.95293725975803
 21
18.79322402954101
 31
0.0
 12
26.92293725975803
 22
18.61322402954101
 32
0.0
 13
26.92293725975803
 23
18.61322402954101
 33
0.0
  0
MTEXT
  5
2F7
330
2F0
100
AcDbEntity
  8
0
  6
CONTINUOUS
 62
     0
100
AcDbMText
 10
26.92293725975802
 20
20.36322402954101
 30
0.0
 40
0.18
 41
0.0
 71
     5
 72
     1
  1
\A1;3.5000
1001
ACAD
1000
MTEXTBEGIN
1070
    73
1070
     1
1070
    44
1040
1.0
1070
    74
1070
     0
1000
MTEXTEND
  0
POINT
  5
2F8
330
2F0
100
AcDbEntity
  8
DEFPOINTS
  6
CONTINUOUS
 62
     0
100
AcDbPoint
 10
26.40113067626953
 20
22.11322402954101
 30
0.0
  0
POINT
  5
2F9
330
2F0
100
AcDbEntity
  8
DEFPOINTS
  6
CONTINUOUS
 62
     0
100
AcDbPoint
 10
26.40113067626953
 20
18.61322402954101
 30
0.0
  0
POINT
  5
2FA
330
2F0
100
AcDbEntity
  8
DEFPOINTS
  6
CONTINUOUS
 62
     0
100
AcDbPoint
 10
26.92293725975803
 20
18.61322402954101
 30
0.0
  0
ENDBLK
  5
2FC
330
2F0
100
AcDbEntity
  8
0
100
AcDbBlockEnd
  0
ENDSEC
  0
SECTION
  2
ENTITIES
  0
LINE
  5
2A
330
A
100
AcDbEntity
  8
TFR-TRI
  6
CONTINUOUS
 62
   215
100
AcDbLine
 10
34.53858566284179
 20
12.43695163726806
 30
0.0
 11
34.53858566284179
 21
12.39005279541015
 31
0.0
  0
LINE
  5
2C
330
A
100
AcDbEntity
  8
TFR-TRI
  6
CONTINUOUS
 62
   215
100
AcDbLine
 10
34.53858566284179
 20
12.23572349548339
 30
0.0
 11
34.53858566284179
 21
12.23110675811767
 31
0.0
  0
LINE
  5
2D
330
A
100
AcDbEntity
  8
TFR-TRI
  6
CONTINUOUS
 62
   215
100
AcDbLine
 10
24.40113067626953
 20
5.488223552703857
 30
0.0
 11
23.43863105773925
 21
5.488223552703857
 31
0.0
  0
LINE
  5
2E
330
A
100
AcDbEntity
  8
TFR-TRI
  6
CONTINUOUS
 62
   215
100
AcDbLine
 10
34.41528701782226
 20
7.531596183776855
 30
0.0
 11
34.41528701782226
 21
7.562342643737792
 31
0.0
  0
LINE
  5
2F
330
A
100
AcDbEntity
  8
TFR-TRI
  6
CONTINUOUS
 62
   215
100
AcDbLine
 10
34.41528701782226
 20
8.985723495483398
 30
0.0
 11
34.41528701782226
 21
10.74072360992431
 31
0.0
  0
LINE
  5
30
330
A
100
AcDbEntity
  8
TFR-TRI
  6
CONTINUOUS
 62
   215
100
AcDbLine
 10
34.41528701782226
 20
8.890052795410156
 30
0.0
 11
34.41528701782226
 21
8.936951637268066
 31
0.0
  0
LINE
  5
31
330
A
100
AcDbEntity
  8
TFR-TRI
  6
CONTINUOUS
 62
   215
100
AcDbLine
 10
34.41528701782226
 20
11.03159618377685
 30
0.0
 11
34.41528701782226
 21
11.06234264373779
 31
0.0
  0
LINE
  5
32
330
A
100
AcDbEntity
  8
TFR-TRI
  6
CONTINUOUS
 62
   215
100
AcDbLine
 10
34.41528701782226
 20
11.10055828094482
 30
0.0
 11
34.41528701782226
 21
11.1453046798706
 31
0.0
  0
LINE
  5
33
330
A
100
AcDbEntity
  8
TFR-TRI
  6
CONTINUOUS
 62
   215
100
AcDbLine
 10
34.41528701782226
 20
8.777856826782226
 30
0.0
 11
34.41528701782226
 21
8.808947563171386
 31
0.0
  0
LINE
  5
34
330
A
100
AcDbEntity
  8
TFR-TRI
  6
CONTINUOUS
 62
   215
100
AcDbLine
 10
23.43863105773925
 20
30.89471626281738
 30
0.0
 11
23.43863105773925
 21
30.77141761779785
 31
0.0
  0
LINE
  5
35
330
A
100
AcDbEntity
  8
TFR-TRI
  6
CONTINUOUS
 62
   215
100
AcDbLine
 10
34.41528701782226
 20
11.19547748565673
 30
0.0
 11
34.41528701782226
 21
11.24984264373779
 31
0.0
  0
LINE
  5
36
330
A
100
AcDbEntity
  8
TFR-TRI
  6
CONTINUOUS
 62
   215
100
AcDbLine
 10
34.41528701782226
 20
11.30706119537353
 30
0.0
 11
34.41528701782226
 21
11.36572360992431
 31
0.0
  0
LINE
  5
37
330
A
100
AcDbEntity
  8
TFR-TRI
  6
CONTINUOUS
 62
   215
100
AcDbLine
 10
34.41528701782226
 20
11.86072349548339
 30
0.0
 11
34.41528701782226
 21
11.91938686370849
 31
0.0
  0
LINE
  5
38
330
A
100
AcDbEntity
  8
TFR-TRI
  6
CONTINUOUS
 62
   215
100
AcDbLine
 10
34.41528701782226
 20
11.97660541534423
 30
0.0
 11
34.41528701782226
 21
12.03097057342529
 31
0.0
  0
LINE
  5
39
330
A
100
AcDbEntity
  8
TFR-TRI
  6
CONTINUOUS
 62
   215
100
AcDbLine
 10
34.41528701782226
 20
12.08114337921142
 30
0.0
 11
34.41528701782226
 21
12.12588882446289
 31
0.0
  0
LINE
  5
3A
330
A
100
AcDbEntity
  8
TFR-TRI
  6
CONTINUOUS
 62
   215
100
AcDbLine
 10
34.41528701782226
 20
12.21737003326416
 30
0.0
 11
34.41528701782226
 21
12.23110675811767
 31
0.0
  0
LINE
  5
3B
330
A
100
AcDbEntity
  8
TFR-TRI
  6
CONTINUOUS
 62
   215
100
AcDbLine
 10
34.41528701782226
 20
21.69547653198242
 30
0.0
 11
34.41528701782226
 21
21.74984169006347
 31
0.0
  0
LINE
  5
3C
330
A
100
AcDbEntity
  8
TFR-TRI
  6
CONTINUOUS
 62
   215
100
AcDbLine
 10
34.41528701782226
 20
12.23572349548339
 30
0.0
 11
34.41528701782226
 21
12.24052715301513
 31
0.0
  0
LINE
  5
3D
330
A
100
AcDbEntity
  8
TFR-TRI
  6
CONTINUOUS
 62
   215
100
AcDbLine
 10
34.41528701782226
 20
12.25475406646728
 30
0.0
 11
34.41528701782226
 21
12.27785682678222
 31
0.0
  0
LINE
  5
3E
330
A
100
AcDbEntity
  8
TFR-TRI
  6
CONTINUOUS
 62
   215
100
AcDbLine
 10
34.41528701782226
 20
12.30894756317138
 30
0.0
 11
34.41528701782226
 21
12.3468313217163
 31
0.0
  0
LINE
  5
3F
330
A
100
AcDbEntity
  8
TFR-TRI
  6
CONTINUOUS
 62
   215
100
AcDbLine
 10
34.41528701782226
 20
12.39005279541015
 30
0.0
 11
34.41528701782226
 21
12.43695163726806
 31
0.0
  0
LINE
  5
40
330
A
100
AcDbEntity
  8
TFR-TRI
  6
CONTINUOUS
 62
   215
100
AcDbLine
 10
34.41528701782226
 20
12.48572349548339
 30
0.0
 11
34.41528701782226
 21
17.74072456359863
 31
0.0
  0
LINE
  5
41
330
A
100
AcDbEntity
  8
TFR-TRI
  6
CONTINUOUS
 62
   215
100
AcDbLine
 10
34.41528701782226
 20
17.78949546813964
 30
0.0
 11
34.41528701782226
 21
17.83639526367187
 31
0.0
  0
LINE
  5
42
330
A
100
AcDbEntity
  8
TFR-TRI
  6
CONTINUOUS
 62
   215
100
AcDbLine
 10
34.41528701782226
 20
17.8796157836914
 30
0.0
 11
34.41528701782226
 21
17.91749954223632
 31
0.0
  0
LINE
  5
43
330
A
100
AcDbEntity
  8
TFR-TRI
  6
CONTINUOUS
 62
   215
100
AcDbLine
 10
34.41528701782226
 20
17.98591995239257
 30
0.0
 11
34.41528701782226
 21
17.99072456359863
 31
0.0
  0
LINE
  5
44
330
A
100
AcDbEntity
  8
TFR-TRI
  6
CONTINUOUS
 62
   215
100
AcDbLine
 10
34.53858566284179
 20
7.562342643737792
 30
0.0
 11
34.53858566284179
 21
7.531596183776855
 31
0.0
  0
LINE
  5
45
330
A
100
AcDbEntity
  8
TFR-TRI
  6
CONTINUOUS
 62
   215
100
AcDbLine
 10
34.41528701782226
 20
17.99534034729004
 30
0.0
 11
34.41528701782226
 21
18.00907707214355
 31
0.0
  0
LINE
  5
46
330
A
100
AcDbEntity
  8
TFR-TRI
  6
CONTINUOUS
 62
   215
100
AcDbLine
 10
34.53858566284179
 20
11.36572360992431
 30
0.0
 11
34.53858566284179
 21
11.86072349548339
 31
0.0
  0
LINE
  5
47
330
A
100
AcDbEntity
  8
TFR-TRI
  6
CONTINUOUS
 62
   215
100
AcDbLine
 10
34.41528701782226
 20
18.03159713745117
 30
0.0
 11
34.41528701782226
 21
18.06234169006347
 31
0.0
  0
LINE
  5
48
330
A
100
AcDbEntity
  8
TFR-TRI
  6
CONTINUOUS
 62
   215
100
AcDbLine
 10
34.41528701782226
 20
18.10055923461914
 30
0.0
 11
34.41528701782226
 21
18.14530372619628
 31
0.0
  0
LINE
  5
49
330
A
100
AcDbEntity
  8
TFR-TRI
  6
CONTINUOUS
 62
   215
100
AcDbLine
 10
34.41528701782226
 20
18.19547653198242
 30
0.0
 11
34.41528701782226
 21
18.24984169006347
 31
0.0
  0
LINE
  5
4A
330
A
100
AcDbEntity
  8
TFR-TRI
  6
CONTINUOUS
 62
   215
100
AcDbLine
 10
34.41528701782226
 20
18.30706024169922
 30
0.0
 11
34.41528701782226
 21
18.36572456359863
 31
0.0
  0
LINE
  5
4B
330
A
100
AcDbEntity
  8
TFR-TRI
  6
CONTINUOUS
 62
   215
100
AcDbLine
 10
34.41528701782226
 20
18.97660446166992
 30
0.0
 11
34.41528701782226
 21
19.03096961975097
 31
0.0
  0
LINE
  5
4C
330
A
100
AcDbEntity
  8
TFR-TRI
  6
CONTINUOUS
 62
   215
100
AcDbLine
 10
34.41528701782226
 20
19.0811424255371
 30
0.0
 11
34.41528701782226
 21
19.12588882446289
 31
0.0
  0
LINE
  5
4D
330
A
100
AcDbEntity
  8
TFR-TRI
  6
CONTINUOUS
 62
   215
100
AcDbLine
 10
34.41528701782226
 20
19.16410446166992
 30
0.0
 11
34.41528701782226
 21
19.19485092163085
 31
0.0
  0
LINE
  5
4E
330
A
100
AcDbEntity
  8
TFR-TRI
  6
CONTINUOUS
 62
   215
100
AcDbLine
 10
34.41528701782226
 20
19.21736907958984
 30
0.0
 11
34.41528701782226
 21
19.23110771179199
 31
0.0
  0
LINE
  5
4F
330
A
100
AcDbEntity
  8
TFR-TRI
  6
CONTINUOUS
 62
   215
100
AcDbLine
 10
34.53858566284179
 20
8.890052795410156
 30
0.0
 11
34.53858566284179
 21
8.846831321716308
 31
0.0
  0
LINE
  5
50
330
A
100
AcDbEntity
  8
TFR-TRI
  6
CONTINUOUS
 62
   215
100
AcDbLine
 10
34.53858566284179
 20
7.865723609924316
 30
0.0
 11
34.41528701782226
 21
7.865723609924316
 31
0.0
  0
LINE
  5
51
330
A
100
AcDbEntity
  8
TFR-TRI
  6
CONTINUOUS
 62
   215
100
AcDbLine
 10
34.41528701782226
 20
19.23572349548339
 30
0.0
 11
34.41528701782226
 21
19.24052810668945
 31
0.0
  0
LINE
  5
52
330
A
100
AcDbEntity
  8
TFR-TRI
  6
CONTINUOUS
 62
   215
100
AcDbLine
 10
34.41528701782226
 20
19.25475311279297
 30
0.0
 11
34.41528701782226
 21
19.27785682678222
 31
0.0
  0
LINE
  5
53
330
A
100
AcDbEntity
  8
TFR-TRI
  6
CONTINUOUS
 62
   215
100
AcDbLine
 10
34.41528701782226
 20
19.30894660949707
 30
0.0
 11
34.41528701782226
 21
19.34683036804199
 31
0.0
  0
LINE
  5
54
330
A
100
AcDbEntity
  8
TFR-TRI
  6
CONTINUOUS
 62
   215
100
AcDbLine
 10
34.41528701782226
 20
19.39005279541015
 30
0.0
 11
34.41528701782226
 21
19.43695068359375
 31
0.0
  0
LINE
  5
55
330
A
100
AcDbEntity
  8
TFR-TRI
  6
CONTINUOUS
 62
   215
100
AcDbLine
 10
34.41528701782226
 20
19.4857234954834
 30
0.0
 11
34.41528701782226
 21
21.24072456359863
 31
0.0
  0
LINE
  5
56
330
A
100
AcDbEntity
  8
TFR-TRI
  6
CONTINUOUS
 62
   215
100
AcDbLine
 10
34.53858566284179
 20
22.3607234954834
 30
0.0
 11
34.41528701782226
 21
22.3607234954834
 31
0.0
  0
LINE
  5
57
330
A
100
AcDbEntity
  8
TFR-TRI
  6
CONTINUOUS
 62
   215
100
AcDbLine
 10
34.41528701782226
 20
21.28949546813964
 30
0.0
 11
34.41528701782226
 21
21.33639526367187
 31
0.0
  0
LINE
  5
58
330
A
100
AcDbEntity
  8
TFR-TRI
  6
CONTINUOUS
 62
   215
100
AcDbLine
 10
34.41528701782226
 20
21.3796157836914
 30
0.0
 11
34.41528701782226
 21
21.41749954223632
 31
0.0
  0
LINE
  5
59
330
A
100
AcDbEntity
  8
TFR-TRI
  6
CONTINUOUS
 62
   215
100
AcDbLine
 10
34.41528701782226
 20
21.4485912322998
 30
0.0
 11
34.41528701782226
 21
21.47169303894043
 31
0.0
  0
LINE
  5
5A
330
A
100
AcDbEntity
  8
TFR-TRI
  6
CONTINUOUS
 62
   215
100
AcDbLine
 10
23.13038063049316
 20
6.156693458557128
 30
0.0
 11
23.13038063049316
 21
6.170919895172119
 31
0.0
  0
LINE
  5
5B
330
A
100
AcDbEntity
  8
TFR-TRI
  6
CONTINUOUS
 62
   215
100
AcDbLine
 10
34.41528701782226
 20
21.48591995239257
 30
0.0
 11
34.41528701782226
 21
21.49072456359863
 31
0.0
  0
LINE
  5
5C
330
A
100
AcDbEntity
  8
TFR-TRI
  6
CONTINUOUS
 62
   215
100
AcDbLine
 10
23.13038063049316
 20
5.488223552703857
 30
0.0
 11
23.13038063049316
 21
5.493027687072753
 31
0.0
  0
LINE
  5
5D
330
A
100
AcDbEntity
  8
TFR-TRI
  6
CONTINUOUS
 62
   215
100
AcDbLine
 10
34.41528701782226
 20
21.49534034729004
 30
0.0
 11
34.41528701782226
 21
21.50907707214355
 31
0.0
  0
LINE
  5
5E
330
A
100
AcDbEntity
  8
TFR-TRI
  6
CONTINUOUS
 62
   215
100
AcDbLine
 10
23.13038063049316
 20
5.507254123687744
 30
0.0
 11
23.13038063049316
 21
5.530356407165527
 31
0.0
  0
LINE
  5
5F
330
A
100
AcDbEntity
  8
TFR-TRI
  6
CONTINUOUS
 62
   215
100
AcDbLine
 10
34.39697265625
 20
23.92572402954101
 30
0.0
 11
34.41064834594726
 21
23.92572402954101
 31
0.0
  0
LINE
  5
60
330
A
100
AcDbEntity
  8
TFR-TRI
  6
CONTINUOUS
 62
   215
100
AcDbLine
 10
34.41528701782226
 20
21.53159713745117
 30
0.0
 11
34.41528701782226
 21
21.56234169006347
 31
0.0
  0
LINE
  5
61
330
A
100
AcDbEntity
  8
TFR-TRI
  6
CONTINUOUS
 62
   215
100
AcDbLine
 10
34.41528701782226
 20
21.60055923461914
 30
0.0
 11
34.41528701782226
 21
21.64530372619628
 31
0.0
  0
LINE
  5
62
330
A
100
AcDbEntity
  8
TFR-TRI
  6
CONTINUOUS
 62
   215
100
AcDbLine
 10
23.13038063049316
 20
5.642552852630615
 30
0.0
 11
23.13038063049316
 21
5.689451217651367
 31
0.0
  0
LINE
  5
63
330
A
100
AcDbEntity
  8
TFR-TRI
  6
CONTINUOUS
 62
   215
100
AcDbLine
 10
23.25368118286132
 20
6.175723552703857
 30
0.0
 11
23.25368118286132
 21
6.170919895172119
 31
0.0
  0
LINE
  5
64
330
A
100
AcDbEntity
  8
TFR-TRI
  6
CONTINUOUS
 62
   215
100
AcDbLine
 10
34.41528701782226
 20
21.80706024169921
 30
0.0
 11
34.41528701782226
 21
21.86572456359863
 31
0.0
  0
LINE
  5
65
330
A
100
AcDbEntity
  8
TFR-TRI
  6
CONTINUOUS
 62
   215
100
AcDbLine
 10
23.25368118286132
 20
6.156693458557128
 30
0.0
 11
23.25368118286132
 21
6.133591175079345
 31
0.0
  0
LINE
  5
66
330
A
100
AcDbEntity
  8
TFR-TRI
  6
CONTINUOUS
 62
   215
100
AcDbLine
 10
34.41528701782226
 20
22.3607234954834
 30
0.0
 11
34.41528701782226
 21
22.41938591003417
 31
0.0
  0
LINE
  5
67
330
A
100
AcDbEntity
  8
TFR-TRI
  6
CONTINUOUS
 62
   215
100
AcDbLine
 10
23.25368118286132
 20
6.102500438690185
 30
0.0
 11
23.25368118286132
 21
6.064616203308105
 31
0.0
  0
LINE
  5
68
330
A
100
AcDbEntity
  8
TFR-TRI
  6
CONTINUOUS
 62
   215
100
AcDbLine
 10
34.31058502197265
 20
24.61322402954101
 30
0.0
 11
34.27149200439453
 21
24.61322402954101
 31
0.0
  0
LINE
  5
69
330
A
100
AcDbEntity
  8
TFR-TRI
  6
CONTINUOUS
 62
   215
100
AcDbLine
 10
34.41528701782226
 20
22.47660446166992
 30
0.0
 11
34.41528701782226
 21
22.53096961975097
 31
0.0
  0
LINE
  5
6A
330
A
100
AcDbEntity
  8
TFR-TRI
  6
CONTINUOUS
 62
   215
100
AcDbLine
 10
23.25368118286132
 20
6.021394729614257
 30
0.0
 11
23.25368118286132
 21
5.974496364593505
 31
0.0
  0
LINE
  5
6B
330
A
100
AcDbEntity
  8
TFR-TRI
  6
CONTINUOUS
 62
   215
100
AcDbLine
 10
24.65113067626953
 20
8.985723495483398
 30
0.0
 11
24.65113067626953
 21
10.74072360992431
 31
0.0
  0
LINE
  5
6C
330
A
100
AcDbEntity
  8
TFR-TRI
  6
CONTINUOUS
 62
   215
100
AcDbLine
 10
34.41528701782226
 20
22.5811424255371
 30
0.0
 11
34.41528701782226
 21
22.62588882446288
 31
0.0
  0
LINE
  5
6D
330
A
100
AcDbEntity
  8
TFR-TRI
  6
CONTINUOUS
 62
   215
100
AcDbLine
 10
23.25368118286132
 20
5.925723552703857
 30
0.0
 11
23.25368118286132
 21
5.738223552703857
 31
0.0
  0
LINE
  5
6E
330
A
100
AcDbEntity
  8
TFR-TRI
  6
CONTINUOUS
 62
   215
100
AcDbLine
 10
34.41528701782226
 20
22.66410446166992
 30
0.0
 11
34.41528701782226
 21
22.69485092163086
 31
0.0
  0
LINE
  5
6F
330
A
100
AcDbEntity
  8
TFR-TRI
  6
CONTINUOUS
 62
   215
100
AcDbLine
 10
23.25368118286132
 20
5.689451217651367
 30
0.0
 11
23.25368118286132
 21
5.642552852630615
 31
0.0
  0
LINE
  5
70
330
A
100
AcDbEntity
  8
TFR-TRI
  6
CONTINUOUS
 62
   215
100
AcDbLine
 10
34.41528701782226
 20
22.71736907958984
 30
0.0
 11
34.41528701782226
 21
22.73110771179199
 31
0.0
  0
LINE
  5
71
330
A
100
AcDbEntity
  8
TFR-TRI
  6
CONTINUOUS
 62
   215
100
AcDbLine
 10
23.25368118286132
 20
5.599331378936767
 30
0.0
 11
23.25368118286132
 21
5.561447143554687
 31
0.0
  0
LINE
  5
72
330
A
100
AcDbEntity
  8
TFR-TRI
  6
CONTINUOUS
 62
   215
100
AcDbLine
 10
23.25368118286132
 20
5.530356407165527
 30
0.0
 11
23.25368118286132
 21
5.507254123687744
 31
0.0
  0
LINE
  5
73
330
A
100
AcDbEntity
  8
TFR-TRI
  6
CONTINUOUS
 62
   215
100
AcDbLine
 10
34.41528701782226
 20
22.75475311279297
 30
0.0
 11
34.41528701782226
 21
22.77785682678222
 31
0.0
  0
LINE
  5
74
330
A
100
AcDbEntity
  8
TFR-TRI
  6
CONTINUOUS
 62
   215
100
AcDbLine
 10
34.53858566284179
 20
21.80706024169921
 30
0.0
 11
34.53858566284179
 21
21.74984169006347
 31
0.0
  0
LINE
  5
75
330
A
100
AcDbEntity
  8
TFR-TRI
  6
CONTINUOUS
 62
   215
100
AcDbLine
 10
23.25368118286132
 20
5.493027687072753
 30
0.0
 11
23.25368118286132
 21
5.488223552703857
 31
0.0
  0
LINE
  5
76
330
A
100
AcDbEntity
  8
TFR-TRI
  6
CONTINUOUS
 62
   215
100
AcDbLine
 10
34.41528701782226
 20
22.89005279541015
 30
0.0
 11
34.41528701782226
 21
22.93695068359375
 31
0.0
  0
LINE
  5
77
330
A
100
AcDbEntity
  8
TFR-TRI
  6
CONTINUOUS
 62
   215
100
AcDbLine
 10
23.13038063049316
 20
6.175723552703857
 30
0.0
 11
23.25368118286132
 21
6.175723552703857
 31
0.0
  0
LINE
  5
78
330
A
100
AcDbEntity
  8
TFR-TRI
  6
CONTINUOUS
 62
   215
100
AcDbLine
 10
34.41528701782226
 20
22.9857234954834
 30
0.0
 11
34.41528701782226
 21
24.36322402954101
 31
0.0
  0
LINE
  5
79
330
A
100
AcDbEntity
  8
TFR-TRI
  6
CONTINUOUS
 62
   215
100
AcDbLine
 10
34.41528701782226
 20
5.493027687072753
 30
0.0
 11
34.41528701782226
 21
5.507254123687744
 31
0.0
  0
LINE
  5
7A
330
A
100
AcDbEntity
  8
TFR-TRI
  6
CONTINUOUS
 62
   215
100
AcDbLine
 10
34.41528701782226
 20
24.41199684143066
 30
0.0
 11
34.41528701782226
 21
24.45889472961425
 31
0.0
  0
LINE
  5
7B
330
A
100
AcDbEntity
  8
TFR-TRI
  6
CONTINUOUS
 62
   215
100
AcDbLine
 10
34.41528701782226
 20
5.530356407165527
 30
0.0
 11
34.41528701782226
 21
5.561447143554687
 31
0.0
  0
LINE
  5
7C
330
A
100
AcDbEntity
  8
TFR-TRI
  6
CONTINUOUS
 62
   215
100
AcDbLine
 10
34.41528701782226
 20
24.50211715698242
 30
0.0
 11
34.41528701782226
 21
24.54000091552734
 31
0.0
  0
LINE
  5
7D
330
A
100
AcDbEntity
  8
TFR-TRI
  6
CONTINUOUS
 62
   215
100
AcDbLine
 10
34.53858566284179
 20
21.50907707214355
 30
0.0
 11
34.53858566284179
 21
21.49534034729004
 31
0.0
  0
LINE
  5
7E
330
A
100
AcDbEntity
  8
TFR-TRI
  6
CONTINUOUS
 62
   215
100
AcDbLine
 10
34.37493515014648
 20
6.175723552703857
 30
0.0
 11
34.34564971923828
 21
6.175723552703857
 31
0.0
  0
LINE
  5
7F
330
A
100
AcDbEntity
  8
TFR-TRI
  6
CONTINUOUS
 62
   215
100
AcDbLine
 10
34.53858566284179
 20
21.3796157836914
 30
0.0
 11
34.53858566284179
 21
21.33639526367187
 31
0.0
  0
LINE
  5
80
330
A
100
AcDbEntity
  8
TFR-TRI
  6
CONTINUOUS
 62
   215
100
AcDbLine
 10
24.64632606506347
 20
30.77141761779785
 30
0.0
 11
24.63210105895996
 21
30.77141761779785
 31
0.0
  0
LINE
  5
81
330
A
100
AcDbEntity
  8
TFR-TRI
  6
CONTINUOUS
 62
   215
100
AcDbLine
 10
34.53858566284179
 20
7.240723609924316
 30
0.0
 11
34.41528701782226
 21
7.240723609924316
 31
0.0
  0
LINE
  5
82
330
A
100
AcDbEntity
  8
TFR-TRI
  6
CONTINUOUS
 62
   215
100
AcDbLine
 10
34.53858566284179
 20
10.74072360992431
 30
0.0
 11
34.41528701782226
 21
10.74072360992431
 31
0.0
  0
LINE
  5
83
330
A
100
AcDbEntity
  8
TFR-TRI
  6
CONTINUOUS
 62
   215
100
AcDbLine
 10
34.53858566284179
 20
19.34683036804199
 30
0.0
 11
34.53858566284179
 21
19.30894660949707
 31
0.0
  0
LINE
  5
84
330
A
100
AcDbEntity
  8
TFR-TRI
  6
CONTINUOUS
 62
   215
100
AcDbLine
 10
34.53858566284179
 20
22.47660446166992
 30
0.0
 11
34.53858566284179
 21
22.41938591003417
 31
0.0
  0
LINE
  5
85
330
A
100
AcDbEntity
  8
TFR-TRI
  6
CONTINUOUS
 62
   215
100
AcDbLine
 10
34.53858566284179
 20
22.73572349548339
 30
0.0
 11
34.41528701782226
 21
22.73572349548339
 31
0.0
  0
LINE
  5
86
330
A
100
AcDbEntity
  8
TFR-TRI
  6
CONTINUOUS
 62
   215
100
AcDbLine
 10
34.53858566284179
 20
19.21736907958984
 30
0.0
 11
34.53858566284179
 21
19.19485092163085
 31
0.0
  0
LINE
  5
87
330
A
100
AcDbEntity
  8
TFR-TRI
  6
CONTINUOUS
 62
   215
100
AcDbLine
 10
34.53858566284179
 20
12.23572349548339
 30
0.0
 11
34.41528701782226
 21
12.23572349548339
 31
0.0
  0
LINE
  5
88
330
A
100
AcDbEntity
  8
TFR-TRI
  6
CONTINUOUS
 62
   215
100
AcDbLine
 10
34.53858566284179
 20
18.91938591003418
 30
0.0
 11
34.53858566284179
 21
18.8607234954834
 31
0.0
  0
LINE
  5
89
330
A
100
AcDbEntity
  8
TFR-TRI
  6
CONTINUOUS
 62
   215
100
AcDbLine
 10
34.53858566284179
 20
18.10055923461914
 30
0.0
 11
34.53858566284179
 21
18.06234169006347
 31
0.0
  0
LINE
  5
8A
330
A
100
AcDbEntity
  8
TFR-TRI
  6
CONTINUOUS
 62
   215
100
AcDbLine
 10
24.6701602935791
 20
30.89471626281738
 30
0.0
 11
24.69326400756836
 21
30.89471626281738
 31
0.0
  0
LINE
  5
8B
330
A
100
AcDbEntity
  8
TFR-TRI
  6
CONTINUOUS
 62
   215
100
AcDbLine
 10
34.53858566284179
 20
17.97169303894043
 30
0.0
 11
34.53858566284179
 21
17.9485912322998
 31
0.0
  0
LINE
  5
8C
330
A
100
AcDbEntity
  8
TFR-TRI
  6
CONTINUOUS
 62
   215
100
AcDbLine
 10
23.13038063049316
 20
24.08005332946777
 30
0.0
 11
23.13038063049316
 21
24.12695121765136
 31
0.0
  0
LINE
  5
8D
330
A
100
AcDbEntity
  8
TFR-TRI
  6
CONTINUOUS
 62
   215
100
AcDbLine
 10
34.53858566284179
 20
12.48572349548339
 30
0.0
 11
34.53858566284179
 21
12.43695163726806
 31
0.0
  0
LINE
  5
8E
330
A
100
AcDbEntity
  8
TFR-TRI
  6
CONTINUOUS
 62
   215
100
AcDbLine
 10
34.53858566284179
 20
12.08114337921142
 30
0.0
 11
34.53858566284179
 21
12.03097057342529
 31
0.0
  0
LINE
  5
8F
330
A
100
AcDbEntity
  8
TFR-TRI
  6
CONTINUOUS
 62
   215
100
AcDbLine
 10
34.53858566284179
 20
11.06234264373779
 30
0.0
 11
34.53858566284179
 21
11.03159618377685
 31
0.0
  0
LINE
  5
90
330
A
100
AcDbEntity
  8
TFR-TRI
  6
CONTINUOUS
 62
   215
100
AcDbLine
 10
23.13038063049316
 20
28.39339447021484
 30
0.0
 11
23.13038063049316
 21
28.44216728210449
 31
0.0
  0
LINE
  5
91
330
A
100
AcDbEntity
  8
TFR-TRI
  6
CONTINUOUS
 62
   215
100
AcDbLine
 10
34.53858566284179
 20
10.83639430999755
 30
0.0
 11
34.53858566284179
 21
10.78949642181396
 31
0.0
  0
LINE
  5
92
330
A
100
AcDbEntity
  8
TFR-TRI
  6
CONTINUOUS
 62
   215
100
AcDbLine
 10
34.53858566284179
 20
12.23110675811767
 30
0.0
 11
34.53858566284179
 21
12.21737003326416
 31
0.0
  0
LINE
  5
93
330
A
100
AcDbEntity
  8
TFR-TRI
  6
CONTINUOUS
 62
   215
100
AcDbLine
 10
34.53858566284179
 20
24.45889472961425
 30
0.0
 11
34.53858566284179
 21
24.41199684143066
 31
0.0
  0
LINE
  5
94
330
A
100
AcDbEntity
  8
TFR-TRI
  6
CONTINUOUS
 62
   215
100
AcDbLine
 10
34.53858566284179
 20
24.36322402954101
 30
0.0
 11
34.53858566284179
 21
22.9857234954834
 31
0.0
  0
LINE
  5
95
330
A
100
AcDbEntity
  8
TFR-TRI
  6
CONTINUOUS
 62
   215
100
AcDbLine
 10
34.53858566284179
 20
22.93695068359375
 30
0.0
 11
34.53858566284179
 21
22.89005279541015
 31
0.0
  0
LINE
  5
96
330
A
100
AcDbEntity
  8
TFR-TRI
  6
CONTINUOUS
 62
   215
100
AcDbLine
 10
34.53858566284179
 20
22.84683036804199
 30
0.0
 11
34.53858566284179
 21
22.80894660949706
 31
0.0
  0
LINE
  5
97
330
A
100
AcDbEntity
  8
TFR-TRI
  6
CONTINUOUS
 62
   215
100
AcDbLine
 10
34.53858566284179
 20
22.77785682678222
 30
0.0
 11
34.53858566284179
 21
22.75475311279297
 31
0.0
  0
LINE
  5
98
330
A
100
AcDbEntity
  8
TFR-TRI
  6
CONTINUOUS
 62
   215
100
AcDbLine
 10
34.53858566284179
 20
22.74052810668945
 30
0.0
 11
34.53858566284179
 21
22.73572349548339
 31
0.0
  0
LINE
  5
99
330
A
100
AcDbEntity
  8
TFR-TRI
  6
CONTINUOUS
 62
   215
100
AcDbLine
 10
34.53858566284179
 20
22.69485092163086
 30
0.0
 11
34.53858566284179
 21
22.66410446166992
 31
0.0
  0
LINE
  5
9A
330
A
100
AcDbEntity
  8
TFR-TRI
  6
CONTINUOUS
 62
   215
100
AcDbLine
 10
34.53858566284179
 20
22.62588882446288
 30
0.0
 11
34.53858566284179
 21
22.5811424255371
 31
0.0
  0
LINE
  5
9B
330
A
100
AcDbEntity
  8
TFR-TRI
  6
CONTINUOUS
 62
   215
100
AcDbLine
 10
34.53858566284179
 20
22.53096961975097
 30
0.0
 11
34.53858566284179
 21
22.47660446166992
 31
0.0
  0
LINE
  5
9C
330
A
100
AcDbEntity
  8
TFR-TRI
  6
CONTINUOUS
 62
   215
100
AcDbLine
 10
34.53858566284179
 20
8.664105415344238
 30
0.0
 11
34.53858566284179
 21
8.62588882446289
 31
0.0
  0
LINE
  5
9D
330
A
100
AcDbEntity
  8
TFR-TRI
  6
CONTINUOUS
 62
   215
100
AcDbLine
 10
23.25368118286132
 20
5.642552852630615
 30
0.0
 11
23.25368118286132
 21
5.599331378936767
 31
0.0
  0
LINE
  5
9E
330
A
100
AcDbEntity
  8
TFR-TRI
  6
CONTINUOUS
 62
   215
100
AcDbLine
 10
26.61025810241699
 20
30.89471626281738
 30
0.0
 11
26.63277626037597
 21
30.89471626281738
 31
0.0
  0
LINE
  5
9F
330
A
100
AcDbEntity
  8
TFR-TRI
  6
CONTINUOUS
 62
   215
100
AcDbLine
 10
26.27613067626953
 20
30.89471626281738
 30
0.0
 11
26.33479309082031
 21
30.89471626281738
 31
0.0
  0
LINE
  5
A0
330
A
100
AcDbEntity
  8
TFR-TRI
  6
CONTINUOUS
 62
   215
100
AcDbLine
 10
26.39201164245605
 20
30.89471626281738
 30
0.0
 11
26.44637680053711
 21
30.89471626281738
 31
0.0
  0
LINE
  5
A1
330
A
100
AcDbEntity
  8
TFR-TRI
  6
CONTINUOUS
 62
   215
100
AcDbLine
 10
26.49654960632324
 20
30.89471626281738
 30
0.0
 11
26.54129600524902
 21
30.89471626281738
 31
0.0
  0
LINE
  5
A2
330
A
100
AcDbEntity
  8
TFR-TRI
  6
CONTINUOUS
 62
   215
100
AcDbLine
 10
34.53858566284179
 20
7.531596183776855
 30
0.0
 11
34.53858566284179
 21
7.509077548980712
 31
0.0
  0
LINE
  5
A3
330
A
100
AcDbEntity
  8
TFR-TRI
  6
CONTINUOUS
 62
   215
100
AcDbLine
 10
26.57951164245605
 20
30.89471626281738
 30
0.0
 11
26.61025810241699
 21
30.89471626281738
 31
0.0
  0
LINE
  5
A4
330
A
100
AcDbEntity
  8
TFR-TRI
  6
CONTINUOUS
 62
   215
100
AcDbLine
 10
34.53858566284179
 20
7.417500495910644
 30
0.0
 11
34.53858566284179
 21
7.379616260528564
 31
0.0
  0
LINE
  5
A5
330
A
100
AcDbEntity
  8
TFR-TRI
  6
CONTINUOUS
 62
   215
100
AcDbLine
 10
34.53858566284179
 20
8.360723495483398
 30
0.0
 11
34.41528701782226
 21
8.360723495483398
 31
0.0
  0
LINE
  5
A6
330
A
100
AcDbEntity
  8
TFR-TRI
  6
CONTINUOUS
 62
   215
100
AcDbLine
 10
34.53858566284179
 20
8.735723495483398
 30
0.0
 11
34.53858566284179
 21
8.731106758117675
 31
0.0
  0
LINE
  5
A7
330
A
100
AcDbEntity
  8
TFR-TRI
  6
CONTINUOUS
 62
   215
100
AcDbLine
 10
34.41064834594726
 20
23.92572402954101
 30
0.0
 11
34.41528701782226
 21
23.92572402954101
 31
0.0
  0
LINE
  5
A8
330
A
100
AcDbEntity
  8
TFR-TRI
  6
CONTINUOUS
 62
   215
100
AcDbLine
 10
23.13038063049316
 20
24.36322402954101
 30
0.0
 11
23.13038063049316
 21
24.41199684143066
 31
0.0
  0
LINE
  5
A9
330
A
100
AcDbEntity
  8
TFR-TRI
  6
CONTINUOUS
 62
   215
100
AcDbLine
 10
34.27149200439453
 20
24.61322402954101
 30
0.0
 11
34.2303352355957
 21
24.61322402954101
 31
0.0
  0
LINE
  5
AA
330
A
100
AcDbEntity
  8
TFR-TRI
  6
CONTINUOUS
 62
   215
100
AcDbLine
 10
34.53858566284179
 20
21.74984169006347
 30
0.0
 11
34.53858566284179
 21
21.69547653198242
 31
0.0
  0
LINE
  5
AB
330
A
100
AcDbEntity
  8
TFR-TRI
  6
CONTINUOUS
 62
   215
100
AcDbLine
 10
34.41528701782226
 20
8.581143379211425
 30
0.0
 11
34.41528701782226
 21
8.62588882446289
 31
0.0
  0
LINE
  5
AC
330
A
100
AcDbEntity
  8
TFR-TRI
  6
CONTINUOUS
 62
   215
100
AcDbLine
 10
34.34564971923828
 20
5.488223552703857
 30
0.0
 11
34.31058502197265
 21
5.488223552703857
 31
0.0
  0
LINE
  5
AD
330
A
100
AcDbEntity
  8
TFR-TRI
  6
CONTINUOUS
 62
   215
100
AcDbLine
 10
34.53858566284179
 20
21.49534034729004
 30
0.0
 11
34.53858566284179
 21
21.49072456359863
 31
0.0
  0
LINE
  5
AE
330
A
100
AcDbEntity
  8
TFR-TRI
  6
CONTINUOUS
 62
   215
100
AcDbLine
 10
34.41528701782226
 20
5.642552852630615
 30
0.0
 11
34.41528701782226
 21
5.689451217651367
 31
0.0
  0
LINE
  5
AF
330
A
100
AcDbEntity
  8
TFR-TRI
  6
CONTINUOUS
 62
   215
100
AcDbLine
 10
34.41528701782226
 20
5.738223552703857
 30
0.0
 11
34.41528701782226
 21
7.240723609924316
 31
0.0
  0
LINE
  5
B0
330
A
100
AcDbEntity
  8
TFR-TRI
  6
CONTINUOUS
 62
   215
100
AcDbLine
 10
34.34564971923828
 20
6.175723552703857
 30
0.0
 11
34.31058502197265
 21
6.175723552703857
 31
0.0
  0
LINE
  5
B1
330
A
100
AcDbEntity
  8
TFR-TRI
  6
CONTINUOUS
 62
   215
100
AcDbLine
 10
34.53858566284179
 20
21.33639526367187
 30
0.0
 11
34.53858566284179
 21
21.28949546813964
 31
0.0
  0
LINE
  5
B2
330
A
100
AcDbEntity
  8
TFR-TRI
  6
CONTINUOUS
 62
   215
100
AcDbLine
 10
31.8360366821289
 20
5.925723552703857
 30
0.0
 11
31.8360366821289
 21
5.738223552703857
 31
0.0
  0
LINE
  5
B3
330
A
100
AcDbEntity
  8
TFR-TRI
  6
CONTINUOUS
 62
   215
100
AcDbLine
 10
34.53858566284179
 20
19.30894660949707
 30
0.0
 11
34.53858566284179
 21
19.27785682678222
 31
0.0
  0
LINE
  5
B4
330
A
100
AcDbEntity
  8
TFR-TRI
  6
CONTINUOUS
 62
   215
100
AcDbLine
 10
34.53858566284179
 20
24.36322402954101
 30
0.0
 11
34.41528701782226
 21
24.36322402954101
 31
0.0
  0
LINE
  5
B5
330
A
100
AcDbEntity
  8
TFR-TRI
  6
CONTINUOUS
 62
   215
100
AcDbLine
 10
34.53858566284179
 20
8.694850921630859
 30
0.0
 11
34.53858566284179
 21
8.664105415344238
 31
0.0
  0
LINE
  5
B6
330
A
100
AcDbEntity
  8
TFR-TRI
  6
CONTINUOUS
 62
   215
100
AcDbLine
 10
24.54002380371093
 20
30.77141761779785
 30
0.0
 11
24.49680137634277
 21
30.77141761779785
 31
0.0
  0
LINE
  5
B7
330
A
100
AcDbEntity
  8
TFR-TRI
  6
CONTINUOUS
 62
   215
100
AcDbLine
 10
34.53858566284179
 20
17.99072456359863
 30
0.0
 11
34.41528701782226
 21
17.99072456359863
 31
0.0
  0
LINE
  5
B8
330
A
100
AcDbEntity
  8
TFR-TRI
  6
CONTINUOUS
 62
   215
100
AcDbLine
 10
34.53858566284179
 20
18.36572456359863
 30
0.0
 11
34.53858566284179
 21
18.8607234954834
 31
0.0
  0
LINE
  5
B9
330
A
100
AcDbEntity
  8
TFR-TRI
  6
CONTINUOUS
 62
   215
100
AcDbLine
 10
34.53858566284179
 20
18.06234169006347
 30
0.0
 11
34.53858566284179
 21
18.03159713745117
 31
0.0
  0
LINE
  5
BA
330
A
100
AcDbEntity
  8
TFR-TRI
  6
CONTINUOUS
 62
   215
100
AcDbLine
 10
34.53858566284179
 20
17.9485912322998
 30
0.0
 11
34.53858566284179
 21
17.91749954223632
 31
0.0
  0
LINE
  5
BB
330
A
100
AcDbEntity
  8
TFR-TRI
  6
CONTINUOUS
 62
   215
100
AcDbLine
 10
34.53858566284179
 20
8.740527153015136
 30
0.0
 11
34.53858566284179
 21
8.735723495483398
 31
0.0
  0
LINE
  5
BC
330
A
100
AcDbEntity
  8
TFR-TRI
  6
CONTINUOUS
 62
   215
100
AcDbLine
 10
34.53858566284179
 20
21.47169303894043
 30
0.0
 11
34.53858566284179
 21
21.4485912322998
 31
0.0
  0
LINE
  5
BD
330
A
100
AcDbEntity
  8
TFR-TRI
  6
CONTINUOUS
 62
   215
100
AcDbLine
 10
34.31058502197265
 20
23.92572402954101
 30
0.0
 11
34.34564971923828
 21
23.92572402954101
 31
0.0
  0
LINE
  5
BE
330
A
100
AcDbEntity
  8
TFR-TRI
  6
CONTINUOUS
 62
   215
100
AcDbLine
 10
24.63210105895996
 20
30.77141761779785
 30
0.0
 11
24.6089973449707
 21
30.77141761779785
 31
0.0
  0
LINE
  5
BF
330
A
100
AcDbEntity
  8
TFR-TRI
  6
CONTINUOUS
 62
   215
100
AcDbLine
 10
23.13038063049316
 20
5.561447143554687
 30
0.0
 11
23.13038063049316
 21
5.599331378936767
 31
0.0
  0
LINE
  5
C0
330
A
100
AcDbEntity
  8
TFR-TRI
  6
CONTINUOUS
 62
   215
100
AcDbLine
 10
24.40113067626953
 20
30.89471626281738
 30
0.0
 11
24.44990348815918
 21
30.89471626281738
 31
0.0
  0
LINE
  5
C1
330
A
100
AcDbEntity
  8
TFR-TRI
  6
CONTINUOUS
 62
   215
100
AcDbLine
 10
34.53858566284179
 20
8.936951637268066
 30
0.0
 11
34.53858566284179
 21
8.890052795410156
 31
0.0
  0
LINE
  5
C2
330
A
100
AcDbEntity
  8
TFR-TRI
  6
CONTINUOUS
 62
   215
100
AcDbLine
 10
23.13038063049316
 20
28.26539039611816
 30
0.0
 11
23.13038063049316
 21
28.30327415466308
 31
0.0
  0
LINE
  5
C3
330
A
100
AcDbEntity
  8
TFR-TRI
  6
CONTINUOUS
 62
   215
100
AcDbLine
 10
26.57951164245605
 20
30.77141761779785
 30
0.0
 11
26.54129600524902
 21
30.77141761779785
 31
0.0
  0
LINE
  5
C4
330
A
100
AcDbEntity
  8
TFR-TRI
  6
CONTINUOUS
 62
   215
100
AcDbLine
 10
34.53858566284179
 20
10.99072360992431
 30
0.0
 11
34.53858566284179
 21
10.98591995239257
 31
0.0
  0
LINE
  5
C5
330
A
100
AcDbEntity
  8
TFR-TRI
  6
CONTINUOUS
 62
   215
100
AcDbLine
 10
26.49654960632324
 20
30.77141761779785
 30
0.0
 11
26.44637680053711
 21
30.77141761779785
 31
0.0
  0
LINE
  5
C6
330
A
100
AcDbEntity
  8
TFR-TRI
  6
CONTINUOUS
 62
   215
100
AcDbLine
 10
34.53858566284179
 20
10.78949642181396
 30
0.0
 11
34.53858566284179
 21
10.74072360992431
 31
0.0
  0
LINE
  5
C7
330
A
100
AcDbEntity
  8
TFR-TRI
  6
CONTINUOUS
 62
   215
100
AcDbLine
 10
26.65113067626953
 20
22.3607234954834
 30
0.0
 11
26.65113067626953
 21
21.86572456359863
 31
0.0
  0
LINE
  5
C8
330
A
100
AcDbEntity
  8
TFR-TRI
  6
CONTINUOUS
 62
   215
100
AcDbLine
 10
34.53858566284179
 20
8.808947563171386
 30
0.0
 11
34.53858566284179
 21
8.777856826782226
 31
0.0
  0
LINE
  5
C9
330
A
100
AcDbEntity
  8
TFR-TRI
  6
CONTINUOUS
 62
   215
100
AcDbLine
 10
26.33479309082031
 20
30.77141761779785
 30
0.0
 11
26.27613067626953
 21
30.77141761779785
 31
0.0
  0
LINE
  5
CA
330
A
100
AcDbEntity
  8
TFR-TRI
  6
CONTINUOUS
 62
   215
100
AcDbLine
 10
34.53858566284179
 20
8.476605415344238
 30
0.0
 11
34.53858566284179
 21
8.419386863708496
 31
0.0
  0
LINE
  5
CB
330
A
100
AcDbEntity
  8
TFR-TRI
  6
CONTINUOUS
 62
   215
100
AcDbLine
 10
24.90113067626953
 20
30.77141761779785
 30
0.0
 11
24.85235786437988
 21
30.77141761779785
 31
0.0
  0
LINE
  5
CC
330
A
100
AcDbEntity
  8
TFR-TRI
  6
CONTINUOUS
 62
   215
100
AcDbLine
 10
24.44990348815918
 20
30.77141761779785
 30
0.0
 11
24.40113067626953
 21
30.77141761779785
 31
0.0
  0
LINE
  5
CD
330
A
100
AcDbEntity
  8
TFR-TRI
  6
CONTINUOUS
 62
   215
100
AcDbLine
 10
34.41528701782226
 20
10.78949642181396
 30
0.0
 11
34.41528701782226
 21
10.83639430999755
 31
0.0
  0
LINE
  5
CE
330
A
100
AcDbEntity
  8
TFR-TRI
  6
CONTINUOUS
 62
   215
100
AcDbLine
 10
34.41528701782226
 20
7.695477485656738
 30
0.0
 11
34.41528701782226
 21
7.749842643737792
 31
0.0
  0
LINE
  5
CF
330
A
100
AcDbEntity
  8
TFR-TRI
  6
CONTINUOUS
 62
   215
100
AcDbLine
 10
34.41528701782226
 20
10.87961673736572
 30
0.0
 11
34.41528701782226
 21
10.91750049591064
 31
0.0
  0
LINE
  5
D0
330
A
100
AcDbEntity
  8
TFR-TRI
  6
CONTINUOUS
 62
   215
100
AcDbLine
 10
34.41528701782226
 20
7.807060718536376
 30
0.0
 11
34.41528701782226
 21
7.865723609924316
 31
0.0
  0
LINE
  5
D1
330
A
100
AcDbEntity
  8
TFR-TRI
  6
CONTINUOUS
 62
   215
100
AcDbLine
 10
34.41528701782226
 20
10.9485912322998
 30
0.0
 11
34.41528701782226
 21
10.97169399261474
 31
0.0
  0
LINE
  5
D2
330
A
100
AcDbEntity
  8
TFR-TRI
  6
CONTINUOUS
 62
   215
100
AcDbLine
 10
34.41528701782226
 20
10.98591995239257
 30
0.0
 11
34.41528701782226
 21
10.99072360992431
 31
0.0
  0
LINE
  5
D3
330
A
100
AcDbEntity
  8
TFR-TRI
  6
CONTINUOUS
 62
   215
100
AcDbLine
 10
34.41528701782226
 20
8.476605415344238
 30
0.0
 11
34.41528701782226
 21
8.530970573425292
 31
0.0
  0
LINE
  5
D4
330
A
100
AcDbEntity
  8
TFR-TRI
  6
CONTINUOUS
 62
   215
100
AcDbLine
 10
34.41528701782226
 20
10.99534034729003
 30
0.0
 11
34.41528701782226
 21
11.00907802581787
 31
0.0
  0
LINE
  5
D5
330
A
100
AcDbEntity
  8
TFR-TRI
  6
CONTINUOUS
 62
   215
100
AcDbLine
 10
34.41528701782226
 20
8.664105415344238
 30
0.0
 11
34.41528701782226
 21
8.694850921630859
 31
0.0
  0
LINE
  5
D6
330
A
100
AcDbEntity
  8
TFR-TRI
  6
CONTINUOUS
 62
   215
100
AcDbLine
 10
34.53858566284179
 20
12.3468313217163
 30
0.0
 11
34.53858566284179
 21
12.30894756317138
 31
0.0
  0
LINE
  5
D7
330
A
100
AcDbEntity
  8
TFR-TRI
  6
CONTINUOUS
 62
   215
100
AcDbLine
 10
24.6701602935791
 20
30.77141761779785
 30
0.0
 11
24.65593338012695
 21
30.77141761779785
 31
0.0
  0
LINE
  5
D8
330
A
100
AcDbEntity
  8
TFR-TRI
  6
CONTINUOUS
 62
   215
100
AcDbLine
 10
34.41528701782226
 20
12.19485092163085
 30
0.0
 11
34.41528701782226
 21
12.21737003326416
 31
0.0
  0
LINE
  5
D9
330
A
100
AcDbEntity
  8
TFR-TRI
  6
CONTINUOUS
 62
   215
100
AcDbLine
 10
24.65113067626953
 20
30.77141761779785
 30
0.0
 11
24.64632606506347
 21
30.77141761779785
 31
0.0
  0
LINE
  5
DA
330
A
100
AcDbEntity
  8
TFR-TRI
  6
CONTINUOUS
 62
   215
100
AcDbLine
 10
34.53858566284179
 20
12.21737003326416
 30
0.0
 11
34.53858566284179
 21
12.19485092163085
 31
0.0
  0
LINE
  5
DB
330
A
100
AcDbEntity
  8
TFR-TRI
  6
CONTINUOUS
 62
   215
100
AcDbLine
 10
23.25368118286132
 20
23.93052673339843
 30
0.0
 11
23.25368118286132
 21
23.92572402954101
 31
0.0
  0
LINE
  5
DC
330
A
100
AcDbEntity
  8
TFR-TRI
  6
CONTINUOUS
 62
   215
100
AcDbLine
 10
34.53858566284179
 20
8.754754066467285
 30
0.0
 11
34.53858566284179
 21
8.740527153015136
 31
0.0
  0
LINE
  5
DD
330
A
100
AcDbEntity
  8
TFR-TRI
  6
CONTINUOUS
 62
   215
100
AcDbLine
 10
34.53858566284179
 20
17.91749954223632
 30
0.0
 11
34.53858566284179
 21
17.8796157836914
 31
0.0
  0
LINE
  5
DE
330
A
100
AcDbEntity
  8
TFR-TRI
  6
CONTINUOUS
 62
   215
100
AcDbLine
 10
34.53858566284179
 20
7.807060718536376
 30
0.0
 11
34.53858566284179
 21
7.749842643737792
 31
0.0
  0
LINE
  5
DF
330
A
100
AcDbEntity
  8
TFR-TRI
  6
CONTINUOUS
 62
   215
100
AcDbLine
 10
23.27199554443359
 20
6.175723552703857
 30
0.0
 11
23.25831794738769
 21
6.175723552703857
 31
0.0
  0
LINE
  5
E0
330
A
100
AcDbEntity
  8
TFR-TRI
  6
CONTINUOUS
 62
   215
100
AcDbLine
 10
34.53858566284179
 20
7.509077548980712
 30
0.0
 11
34.53858566284179
 21
7.495340824127197
 31
0.0
  0
LINE
  5
E1
330
A
100
AcDbEntity
  8
TFR-TRI
  6
CONTINUOUS
 62
   215
100
AcDbLine
 10
34.53858566284179
 20
11.30706119537353
 30
0.0
 11
34.53858566284179
 21
11.24984264373779
 31
0.0
  0
LINE
  5
E2
330
A
100
AcDbEntity
  8
TFR-TRI
  6
CONTINUOUS
 62
   215
100
AcDbLine
 10
24.7243537902832
 20
30.89471626281738
 30
0.0
 11
24.76223754882812
 21
30.89471626281738
 31
0.0
  0
LINE
  5
E3
330
A
100
AcDbEntity
  8
TFR-TRI
  6
CONTINUOUS
 62
   215
100
AcDbLine
 10
34.53858566284179
 20
11.36572360992431
 30
0.0
 11
34.53858566284179
 21
11.30706119537353
 31
0.0
  0
LINE
  5
E4
330
A
100
AcDbEntity
  8
TFR-TRI
  6
CONTINUOUS
 62
   215
100
AcDbLine
 10
34.53858566284179
 20
7.379616260528564
 30
0.0
 11
34.53858566284179
 21
7.336394786834716
 31
0.0
  0
LINE
  5
E5
330
A
100
AcDbEntity
  8
TFR-TRI
  6
CONTINUOUS
 62
   215
100
AcDbLine
 10
34.53858566284179
 20
11.36572360992431
 30
0.0
 11
34.41528701782226
 21
11.36572360992431
 31
0.0
  0
LINE
  5
E6
330
A
100
AcDbEntity
  8
TFR-TRI
  6
CONTINUOUS
 62
   215
100
AcDbLine
 10
34.41528701782226
 20
7.289496421813964
 30
0.0
 11
34.41528701782226
 21
7.336394786834716
 31
0.0
  0
LINE
  5
E7
330
A
100
AcDbEntity
  8
TFR-TRI
  6
CONTINUOUS
 62
   215
100
AcDbLine
 10
34.2303352355957
 20
23.92572402954101
 30
0.0
 11
34.27149200439453
 21
23.92572402954101
 31
0.0
  0
LINE
  5
E8
330
A
100
AcDbEntity
  8
TFR-TRI
  6
CONTINUOUS
 62
   215
100
AcDbLine
 10
34.41528701782226
 20
24.61322402954101
 30
0.0
 11
34.41064834594726
 21
24.61322402954101
 31
0.0
  0
LINE
  5
E9
330
A
100
AcDbEntity
  8
TFR-TRI
  6
CONTINUOUS
 62
   215
100
AcDbLine
 10
34.53858566284179
 20
10.74072360992431
 30
0.0
 11
34.53858566284179
 21
8.985723495483398
 31
0.0
  0
LINE
  5
EA
330
A
100
AcDbEntity
  8
TFR-TRI
  6
CONTINUOUS
 62
   215
100
AcDbLine
 10
34.53858566284179
 20
21.69547653198242
 30
0.0
 11
34.53858566284179
 21
21.64530372619628
 31
0.0
  0
LINE
  5
EB
330
A
100
AcDbEntity
  8
TFR-TRI
  6
CONTINUOUS
 62
   215
100
AcDbLine
 10
34.31058502197265
 20
5.488223552703857
 30
0.0
 11
34.27149200439453
 21
5.488223552703857
 31
0.0
  0
LINE
  5
EC
330
A
100
AcDbEntity
  8
TFR-TRI
  6
CONTINUOUS
 62
   215
100
AcDbLine
 10
34.53858566284179
 20
21.49072456359863
 30
0.0
 11
34.53858566284179
 21
21.48591995239257
 31
0.0
  0
LINE
  5
ED
330
A
100
AcDbEntity
  8
TFR-TRI
  6
CONTINUOUS
 62
   215
100
AcDbLine
 10
34.31058502197265
 20
6.175723552703857
 30
0.0
 11
34.27149200439453
 21
6.175723552703857
 31
0.0
  0
LINE
  5
EE
330
A
100
AcDbEntity
  8
TFR-TRI
  6
CONTINUOUS
 62
   215
100
AcDbLine
 10
34.53858566284179
 20
21.28949546813964
 30
0.0
 11
34.53858566284179
 21
21.24072456359863
 31
0.0
  0
LINE
  5
EF
330
A
100
AcDbEntity
  8
TFR-TRI
  6
CONTINUOUS
 62
   215
100
AcDbLine
 10
26.27613067626953
 20
22.73572349548339
 30
0.0
 11
24.90113067626953
 21
22.73572349548339
 31
0.0
  0
LINE
  5
F0
330
A
100
AcDbEntity
  8
TFR-TRI
  6
CONTINUOUS
 62
   215
100
AcDbLine
 10
24.65113067626953
 20
22.9857234954834
 30
0.0
 11
24.65113067626953
 21
24.36322402954101
 31
0.0
  0
LINE
  5
F1
330
A
100
AcDbEntity
  8
TFR-TRI
  6
CONTINUOUS
 62
   215
100
AcDbLine
 10
23.43863105773925
 20
24.61322402954101
 30
0.0
 11
24.40113067626953
 21
24.61322402954101
 31
0.0
  0
LINE
  5
F2
330
A
100
AcDbEntity
  8
TFR-TRI
  6
CONTINUOUS
 62
   215
100
AcDbLine
 10
23.44288063049316
 20
23.92572402954101
 30
0.0
 11
23.43863105773925
 21
23.92572402954101
 31
0.0
  0
LINE
  5
F3
330
A
100
AcDbEntity
  8
TFR-TRI
  6
CONTINUOUS
 62
   215
100
AcDbLine
 10
34.53858566284179
 20
19.27785682678222
 30
0.0
 11
34.53858566284179
 21
19.25475311279297
 31
0.0
  0
LINE
  5
F4
330
A
100
AcDbEntity
  8
TFR-TRI
  6
CONTINUOUS
 62
   215
100
AcDbLine
 10
34.53858566284179
 20
17.74072456359863
 30
0.0
 11
34.41528701782226
 21
17.74072456359863
 31
0.0
  0
LINE
  5
F5
330
A
100
AcDbEntity
  8
TFR-TRI
  6
CONTINUOUS
 62
   215
100
AcDbLine
 10
23.50538063049316
 20
6.238223552703857
 30
0.0
 11
23.50538063049316
 21
23.86322402954101
 31
0.0
  0
LINE
  5
F6
330
A
100
AcDbEntity
  8
TFR-TRI
  6
CONTINUOUS
 62
   215
100
AcDbLine
 10
23.43863105773925
 20
6.175723552703857
 30
0.0
 11
23.44288063049316
 21
6.175723552703857
 31
0.0
  0
LINE
  5
F7
330
A
100
AcDbEntity
  8
TFR-TRI
  6
CONTINUOUS
 62
   215
100
AcDbLine
 10
23.25368118286132
 20
23.92572402954101
 30
0.0
 11
23.25831794738769
 21
23.92572402954101
 31
0.0
  0
LINE
  5
F8
330
A
100
AcDbEntity
  8
TFR-TRI
  6
CONTINUOUS
 62
   215
100
AcDbLine
 10
26.65113067626953
 20
30.77141761779785
 30
0.0
 11
26.64651298522949
 21
30.77141761779785
 31
0.0
  0
LINE
  5
F9
330
A
100
AcDbEntity
  8
TFR-TRI
  6
CONTINUOUS
 62
   215
100
AcDbLine
 10
23.27199554443359
 20
23.92572402954101
 30
0.0
 11
23.29403114318847
 21
23.92572402954101
 31
0.0
  0
LINE
  5
FA
330
A
100
AcDbEntity
  8
TFR-TRI
  6
CONTINUOUS
 62
   215
100
AcDbLine
 10
34.53858566284179
 20
22.9857234954834
 30
0.0
 11
34.41528701782226
 21
22.9857234954834
 31
0.0
  0
LINE
  5
FB
330
A
100
AcDbEntity
  8
TFR-TRI
  6
CONTINUOUS
 62
   215
100
AcDbLine
 10
23.32331657409667
 20
23.92572402954101
 30
0.0
 11
23.35838317871093
 21
23.92572402954101
 31
0.0
  0
LINE
  5
FC
330
A
100
AcDbEntity
  8
TFR-TRI
  6
CONTINUOUS
 62
   215
100
AcDbLine
 10
34.53858566284179
 20
19.16410446166992
 30
0.0
 11
34.53858566284179
 21
19.12588882446289
 31
0.0
  0
LINE
  5
FD
330
A
100
AcDbEntity
  8
TFR-TRI
  6
CONTINUOUS
 62
   215
100
AcDbLine
 10
23.39747619628906
 20
23.92572402954101
 30
0.0
 11
23.43863105773925
 21
23.92572402954101
 31
0.0
  0
LINE
  5
FE
330
A
100
AcDbEntity
  8
TFR-TRI
  6
CONTINUOUS
 62
   215
100
AcDbLine
 10
23.39747619628906
 20
24.61322402954101
 30
0.0
 11
23.35838317871093
 21
24.61322402954101
 31
0.0
  0
LINE
  5
FF
330
A
100
AcDbEntity
  8
TFR-TRI
  6
CONTINUOUS
 62
   215
100
AcDbLine
 10
23.32331657409667
 20
24.61322402954101
 30
0.0
 11
23.29403114318847
 21
24.61322402954101
 31
0.0
  0
LINE
  5
100
330
A
100
AcDbEntity
  8
TFR-TRI
  6
CONTINUOUS
 62
   215
100
AcDbLine
 10
24.80545997619628
 20
30.77141761779785
 30
0.0
 11
24.76223754882812
 21
30.77141761779785
 31
0.0
  0
LINE
  5
101
330
A
100
AcDbEntity
  8
TFR-TRI
  6
CONTINUOUS
 62
   215
100
AcDbLine
 10
23.27199554443359
 20
24.61322402954101
 30
0.0
 11
23.25831794738769
 21
24.61322402954101
 31
0.0
  0
LINE
  5
102
330
A
100
AcDbEntity
  8
TFR-TRI
  6
CONTINUOUS
 62
   215
100
AcDbLine
 10
23.13038063049316
 20
24.17572402954101
 30
0.0
 11
23.13038063049316
 21
24.36322402954101
 31
0.0
  0
LINE
  5
103
330
A
100
AcDbEntity
  8
TFR-TRI
  6
CONTINUOUS
 62
   215
100
AcDbLine
 10
34.53858566284179
 20
18.36572456359863
 30
0.0
 11
34.53858566284179
 21
18.30706024169922
 31
0.0
  0
LINE
  5
104
330
A
100
AcDbEntity
  8
TFR-TRI
  6
CONTINUOUS
 62
   215
100
AcDbLine
 10
23.13038063049316
 20
24.41199684143066
 30
0.0
 11
23.13038063049316
 21
24.45889472961425
 31
0.0
  0
LINE
  5
105
330
A
100
AcDbEntity
  8
TFR-TRI
  6
CONTINUOUS
 62
   215
100
AcDbLine
 10
23.13038063049316
 20
24.50211715698242
 30
0.0
 11
23.13038063049316
 21
24.54000091552734
 31
0.0
  0
LINE
  5
106
330
A
100
AcDbEntity
  8
TFR-TRI
  6
CONTINUOUS
 62
   215
100
AcDbLine
 10
23.13038063049316
 20
24.57109069824218
 30
0.0
 11
23.13038063049316
 21
24.59419441223144
 31
0.0
  0
LINE
  5
107
330
A
100
AcDbEntity
  8
TFR-TRI
  6
CONTINUOUS
 62
   215
100
AcDbLine
 10
34.41528701782226
 20
17.9485912322998
 30
0.0
 11
34.41528701782226
 21
17.97169303894043
 31
0.0
  0
LINE
  5
108
330
A
100
AcDbEntity
  8
TFR-TRI
  6
CONTINUOUS
 62
   215
100
AcDbLine
 10
23.13038063049316
 20
24.60841941833496
 30
0.0
 11
23.13038063049316
 21
24.61322402954101
 31
0.0
  0
LINE
  5
109
330
A
100
AcDbEntity
  8
TFR-TRI
  6
CONTINUOUS
 62
   215
100
AcDbLine
 10
23.13038063049316
 20
23.93052673339843
 30
0.0
 11
23.13038063049316
 21
23.94475364685058
 31
0.0
  0
LINE
  5
10A
330
A
100
AcDbEntity
  8
TFR-TRI
  6
CONTINUOUS
 62
   215
100
AcDbLine
 10
34.53858566284179
 20
18.03159713745117
 30
0.0
 11
34.53858566284179
 21
18.00907707214355
 31
0.0
  0
LINE
  5
10B
330
A
100
AcDbEntity
  8
TFR-TRI
  6
CONTINUOUS
 62
   215
100
AcDbLine
 10
23.13038063049316
 20
23.96785545349121
 30
0.0
 11
23.13038063049316
 21
23.99894714355468
 31
0.0
  0
LINE
  5
10C
330
A
100
AcDbEntity
  8
TFR-TRI
  6
CONTINUOUS
 62
   215
100
AcDbLine
 10
26.64651298522949
 20
30.77141761779785
 30
0.0
 11
26.63277626037597
 21
30.77141761779785
 31
0.0
  0
LINE
  5
10D
330
A
100
AcDbEntity
  8
TFR-TRI
  6
CONTINUOUS
 62
   215
100
AcDbLine
 10
23.13038063049316
 20
24.03683090209961
 30
0.0
 11
23.13038063049316
 21
24.08005332946777
 31
0.0
  0
LINE
  5
10E
330
A
100
AcDbEntity
  8
TFR-TRI
  6
CONTINUOUS
 62
   215
100
AcDbLine
 10
26.61025810241699
 20
30.77141761779785
 30
0.0
 11
26.57951164245605
 21
30.77141761779785
 31
0.0
  0
LINE
  5
10F
330
A
100
AcDbEntity
  8
TFR-TRI
  6
CONTINUOUS
 62
   215
100
AcDbLine
 10
34.41528701782226
 20
24.45889472961425
 30
0.0
 11
34.41528701782226
 21
24.50211715698242
 31
0.0
  0
LINE
  5
110
330
A
100
AcDbEntity
  8
TFR-TRI
  6
CONTINUOUS
 62
   215
100
AcDbLine
 10
23.13038063049316
 20
24.12695121765136
 30
0.0
 11
23.13038063049316
 21
24.17572402954101
 31
0.0
  0
LINE
  5
111
330
A
100
AcDbEntity
  8
TFR-TRI
  6
CONTINUOUS
 62
   215
100
AcDbLine
 10
23.25368118286132
 20
24.60841941833496
 30
0.0
 11
23.25368118286132
 21
24.59419441223144
 31
0.0
  0
LINE
  5
112
330
A
100
AcDbEntity
  8
TFR-TRI
  6
CONTINUOUS
 62
   215
100
AcDbLine
 10
23.25368118286132
 20
24.57109069824218
 30
0.0
 11
23.25368118286132
 21
24.54000091552734
 31
0.0
  0
LINE
  5
113
330
A
100
AcDbEntity
  8
TFR-TRI
  6
CONTINUOUS
 62
   215
100
AcDbLine
 10
23.25368118286132
 20
24.50211715698242
 30
0.0
 11
23.25368118286132
 21
24.45889472961425
 31
0.0
  0
LINE
  5
114
330
A
100
AcDbEntity
  8
TFR-TRI
  6
CONTINUOUS
 62
   215
100
AcDbLine
 10
23.25368118286132
 20
24.41199684143066
 30
0.0
 11
23.25368118286132
 21
24.36322402954101
 31
0.0
  0
LINE
  5
115
330
A
100
AcDbEntity
  8
TFR-TRI
  6
CONTINUOUS
 62
   215
100
AcDbLine
 10
23.25368118286132
 20
24.17572402954101
 30
0.0
 11
23.25368118286132
 21
24.12695121765136
 31
0.0
  0
LINE
  5
116
330
A
100
AcDbEntity
  8
TFR-TRI
  6
CONTINUOUS
 62
   215
100
AcDbLine
 10
23.25368118286132
 20
24.08005332946777
 30
0.0
 11
23.25368118286132
 21
24.03683090209961
 31
0.0
  0
LINE
  5
117
330
A
100
AcDbEntity
  8
TFR-TRI
  6
CONTINUOUS
 62
   215
100
AcDbLine
 10
26.64651298522949
 20
30.89471626281738
 30
0.0
 11
26.65113067626953
 21
30.89471626281738
 31
0.0
  0
LINE
  5
118
330
A
100
AcDbEntity
  8
TFR-TRI
  6
CONTINUOUS
 62
   215
100
AcDbLine
 10
23.25368118286132
 20
23.99894714355468
 30
0.0
 11
23.25368118286132
 21
23.96785545349121
 31
0.0
  0
LINE
  5
119
330
A
100
AcDbEntity
  8
TFR-TRI
  6
CONTINUOUS
 62
   215
100
AcDbLine
 10
23.25368118286132
 20
23.94475364685058
 30
0.0
 11
23.25368118286132
 21
23.93052673339843
 31
0.0
  0
LINE
  5
11A
330
A
100
AcDbEntity
  8
TFR-TRI
  6
CONTINUOUS
 62
   215
100
AcDbLine
 10
23.25368118286132
 20
24.36322402954101
 30
0.0
 11
23.13038063049316
 21
24.36322402954101
 31
0.0
  0
LINE
  5
11B
330
A
100
AcDbEntity
  8
TFR-TRI
  6
CONTINUOUS
 62
   215
100
AcDbLine
 10
23.13038063049316
 20
28.19216728210449
 30
0.0
 11
23.13038063049316
 21
28.19696998596191
 31
0.0
  0
LINE
  5
11C
330
A
100
AcDbEntity
  8
TFR-TRI
  6
CONTINUOUS
 62
   215
100
AcDbLine
 10
34.41528701782226
 20
8.846831321716308
 30
0.0
 11
34.41528701782226
 21
8.890052795410156
 31
0.0
  0
LINE
  5
11D
330
A
100
AcDbEntity
  8
TFR-TRI
  6
CONTINUOUS
 62
   215
100
AcDbLine
 10
23.13038063049316
 20
28.21119689941406
 30
0.0
 11
23.13038063049316
 21
28.23429870605469
 31
0.0
  0
LINE
  5
11E
330
A
100
AcDbEntity
  8
TFR-TRI
  6
CONTINUOUS
 62
   215
100
AcDbLine
 10
23.35838317871093
 20
5.488223552703857
 30
0.0
 11
23.32331657409667
 21
5.488223552703857
 31
0.0
  0
LINE
  5
11F
330
A
100
AcDbEntity
  8
TFR-TRI
  6
CONTINUOUS
 62
   215
100
AcDbLine
 10
34.53858566284179
 20
24.54000091552734
 30
0.0
 11
34.53858566284179
 21
24.50211715698242
 31
0.0
  0
LINE
  5
120
330
A
100
AcDbEntity
  8
TFR-TRI
  6
CONTINUOUS
 62
   215
100
AcDbLine
 10
23.39747619628906
 20
6.175723552703857
 30
0.0
 11
23.35838317871093
 21
6.175723552703857
 31
0.0
  0
LINE
  5
121
330
A
100
AcDbEntity
  8
TFR-TRI
  6
CONTINUOUS
 62
   215
100
AcDbLine
 10
23.32331657409667
 20
6.175723552703857
 30
0.0
 11
23.29403114318847
 21
6.175723552703857
 31
0.0
  0
LINE
  5
122
330
A
100
AcDbEntity
  8
TFR-TRI
  6
CONTINUOUS
 62
   215
100
AcDbLine
 10
24.69326400756836
 20
30.77141761779785
 30
0.0
 11
24.6701602935791
 21
30.77141761779785
 31
0.0
  0
LINE
  5
123
330
A
100
AcDbEntity
  8
TFR-TRI
  6
CONTINUOUS
 62
   215
100
AcDbLine
 10
34.41528701782226
 20
24.59419441223144
 30
0.0
 11
34.41528701782226
 21
24.60841941833496
 31
0.0
  0
LINE
  5
124
330
A
100
AcDbEntity
  8
TFR-TRI
  6
CONTINUOUS
 62
   215
100
AcDbLine
 10
34.53858566284179
 20
5.689451217651367
 30
0.0
 11
34.53858566284179
 21
5.642552852630615
 31
0.0
  0
LINE
  5
125
330
A
100
AcDbEntity
  8
TFR-TRI
  6
CONTINUOUS
 62
   215
100
AcDbLine
 10
34.53858566284179
 20
5.599331378936767
 30
0.0
 11
34.53858566284179
 21
5.561447143554687
 31
0.0
  0
LINE
  5
126
330
A
100
AcDbEntity
  8
TFR-TRI
  6
CONTINUOUS
 62
   215
100
AcDbLine
 10
34.53858566284179
 20
5.530356407165527
 30
0.0
 11
34.53858566284179
 21
5.507254123687744
 31
0.0
  0
LINE
  5
127
330
A
100
AcDbEntity
  8
TFR-TRI
  6
CONTINUOUS
 62
   215
100
AcDbLine
 10
34.53858566284179
 20
5.493027687072753
 30
0.0
 11
34.53858566284179
 21
5.488223552703857
 31
0.0
  0
LINE
  5
128
330
A
100
AcDbEntity
  8
TFR-TRI
  6
CONTINUOUS
 62
   215
100
AcDbLine
 10
34.53858566284179
 20
24.60841941833496
 30
0.0
 11
34.53858566284179
 21
24.59419441223144
 31
0.0
  0
LINE
  5
129
330
A
100
AcDbEntity
  8
TFR-TRI
  6
CONTINUOUS
 62
   215
100
AcDbLine
 10
34.53858566284179
 20
24.57109069824218
 30
0.0
 11
34.53858566284179
 21
24.54000091552734
 31
0.0
  0
LINE
  5
12A
330
A
100
AcDbEntity
  8
TFR-TRI
  6
CONTINUOUS
 62
   215
100
AcDbLine
 10
34.53858566284179
 20
24.50211715698242
 30
0.0
 11
34.53858566284179
 21
24.45889472961425
 31
0.0
  0
LINE
  5
12B
330
A
100
AcDbEntity
  8
TFR-TRI
  6
CONTINUOUS
 62
   215
100
AcDbLine
 10
24.63210105895996
 20
30.89471626281738
 30
0.0
 11
24.64632606506347
 21
30.89471626281738
 31
0.0
  0
LINE
  5
12C
330
A
100
AcDbEntity
  8
TFR-TRI
  6
CONTINUOUS
 62
   215
100
AcDbLine
 10
24.65113067626953
 20
30.89471626281738
 30
0.0
 11
24.65593338012695
 21
30.89471626281738
 31
0.0
  0
LINE
  5
12D
330
A
100
AcDbEntity
  8
TFR-TRI
  6
CONTINUOUS
 62
   215
100
AcDbLine
 10
34.53858566284179
 20
10.98591995239257
 30
0.0
 11
34.53858566284179
 21
10.97169399261474
 31
0.0
  0
LINE
  5
12E
330
A
100
AcDbEntity
  8
TFR-TRI
  6
CONTINUOUS
 62
   215
100
AcDbLine
 10
34.53858566284179
 20
8.71737003326416
 30
0.0
 11
34.53858566284179
 21
8.694850921630859
 31
0.0
  0
LINE
  5
12F
330
A
100
AcDbEntity
  8
TFR-TRI
  6
CONTINUOUS
 62
   215
100
AcDbLine
 10
34.41528701782226
 20
8.735723495483398
 30
0.0
 11
34.41528701782226
 21
8.740527153015136
 31
0.0
  0
LINE
  5
130
330
A
100
AcDbEntity
  8
TFR-TRI
  6
CONTINUOUS
 62
   215
100
AcDbLine
 10
26.27613067626953
 20
8.735723495483398
 30
0.0
 11
24.90113067626953
 21
8.735723495483398
 31
0.0
  0
LINE
  5
131
330
A
100
AcDbEntity
  8
TFR-TRI
  6
CONTINUOUS
 62
   215
100
AcDbLine
 10
24.90113067626953
 20
10.99072360992431
 30
0.0
 11
26.27613067626953
 21
10.99072360992431
 31
0.0
  0
LINE
  5
132
330
A
100
AcDbEntity
  8
TFR-TRI
  6
CONTINUOUS
 62
   215
100
AcDbLine
 10
26.65113067626953
 20
11.86072349548339
 30
0.0
 11
26.65113067626953
 21
11.36572360992431
 31
0.0
  0
LINE
  5
133
330
A
100
AcDbEntity
  8
TFR-TRI
  6
CONTINUOUS
 62
   215
100
AcDbLine
 10
26.27613067626953
 20
12.23572349548339
 30
0.0
 11
24.90113067626953
 21
12.23572349548339
 31
0.0
  0
LINE
  5
134
330
A
100
AcDbEntity
  8
TFR-TRI
  6
CONTINUOUS
 62
   215
100
AcDbLine
 10
24.65113067626953
 20
12.48572349548339
 30
0.0
 11
24.65113067626953
 21
17.74072456359863
 31
0.0
  0
LINE
  5
135
330
A
100
AcDbEntity
  8
TFR-TRI
  6
CONTINUOUS
 62
   215
100
AcDbLine
 10
24.90113067626953
 20
17.99072456359863
 30
0.0
 11
26.27613067626953
 21
17.99072456359863
 31
0.0
  0
LINE
  5
136
330
A
100
AcDbEntity
  8
TFR-TRI
  6
CONTINUOUS
 62
   215
100
AcDbLine
 10
26.65113067626953
 20
18.8607234954834
 30
0.0
 11
26.65113067626953
 21
18.36572456359863
 31
0.0
  0
LINE
  5
137
330
A
100
AcDbEntity
  8
TFR-TRI
  6
CONTINUOUS
 62
   215
100
AcDbLine
 10
24.65113067626953
 20
19.4857234954834
 30
0.0
 11
24.65113067626953
 21
21.24072456359863
 31
0.0
  0
LINE
  5
138
330
A
100
AcDbEntity
  8
TFR-TRI
  6
CONTINUOUS
 62
   215
100
AcDbLine
 10
34.41528701782226
 20
7.417500495910644
 30
0.0
 11
34.41528701782226
 21
7.448591232299804
 31
0.0
  0
LINE
  5
139
330
A
100
AcDbEntity
  8
TFR-TRI
  6
CONTINUOUS
 62
   215
100
AcDbLine
 10
34.41528701782226
 20
7.471693515777587
 30
0.0
 11
34.41528701782226
 21
7.485919952392578
 31
0.0
  0
LINE
  5
13A
330
A
100
AcDbEntity
  8
TFR-TRI
  6
CONTINUOUS
 62
   215
100
AcDbLine
 10
34.41528701782226
 20
7.490723609924316
 30
0.0
 11
34.41528701782226
 21
7.495340824127197
 31
0.0
  0
LINE
  5
13B
330
A
100
AcDbEntity
  8
TFR-TRI
  6
CONTINUOUS
 62
   215
100
AcDbLine
 10
34.41528701782226
 20
12.24052715301513
 30
0.0
 11
34.41528701782226
 21
12.25475406646728
 31
0.0
  0
LINE
  5
13C
330
A
100
AcDbEntity
  8
TFR-TRI
  6
CONTINUOUS
 62
   215
100
AcDbLine
 10
34.41528701782226
 20
7.509077548980712
 30
0.0
 11
34.41528701782226
 21
7.531596183776855
 31
0.0
  0
LINE
  5
13D
330
A
100
AcDbEntity
  8
TFR-TRI
  6
CONTINUOUS
 62
   215
100
AcDbLine
 10
34.53858566284179
 20
12.30894756317138
 30
0.0
 11
34.53858566284179
 21
12.27785682678222
 31
0.0
  0
LINE
  5
13E
330
A
100
AcDbEntity
  8
TFR-TRI
  6
CONTINUOUS
 62
   215
100
AcDbLine
 10
34.53858566284179
 20
12.19485092163085
 30
0.0
 11
34.53858566284179
 21
12.16410541534423
 31
0.0
  0
LINE
  5
13F
330
A
100
AcDbEntity
  8
TFR-TRI
  6
CONTINUOUS
 62
   215
100
AcDbLine
 10
34.53858566284179
 20
7.865723609924316
 30
0.0
 11
34.53858566284179
 21
7.807060718536376
 31
0.0
  0
LINE
  5
140
330
A
100
AcDbEntity
  8
TFR-TRI
  6
CONTINUOUS
 62
   215
100
AcDbLine
 10
23.25368118286132
 20
24.03683090209961
 30
0.0
 11
23.25368118286132
 21
23.99894714355468
 31
0.0
  0
LINE
  5
141
330
A
100
AcDbEntity
  8
TFR-TRI
  6
CONTINUOUS
 62
   215
100
AcDbLine
 10
34.53858566284179
 20
7.240723609924316
 30
0.0
 11
34.53858566284179
 21
5.738223552703857
 31
0.0
  0
LINE
  5
142
330
A
100
AcDbEntity
  8
TFR-TRI
  6
CONTINUOUS
 62
   215
100
AcDbLine
 10
34.53858566284179
 20
7.749842643737792
 30
0.0
 11
34.53858566284179
 21
7.695477485656738
 31
0.0
  0
LINE
  5
143
330
A
100
AcDbEntity
  8
TFR-TRI
  6
CONTINUOUS
 62
   215
100
AcDbLine
 10
34.53858566284179
 20
7.495340824127197
 30
0.0
 11
34.53858566284179
 21
7.490723609924316
 31
0.0
  0
LINE
  5
144
330
A
100
AcDbEntity
  8
TFR-TRI
  6
CONTINUOUS
 62
   215
100
AcDbLine
 10
34.53858566284179
 20
11.24984264373779
 30
0.0
 11
34.53858566284179
 21
11.19547748565673
 31
0.0
  0
LINE
  5
145
330
A
100
AcDbEntity
  8
TFR-TRI
  6
CONTINUOUS
 62
   215
100
AcDbLine
 10
23.43863105773925
 20
30.77141761779785
 30
0.0
 11
24.40113067626953
 21
30.77141761779785
 31
0.0
  0
LINE
  5
146
330
A
100
AcDbEntity
  8
TFR-TRI
  6
CONTINUOUS
 62
   215
100
AcDbLine
 10
23.13038063049316
 20
28.34649658203125
 30
0.0
 11
23.13038063049316
 21
28.39339447021484
 31
0.0
  0
LINE
  5
147
330
A
100
AcDbEntity
  8
TFR-TRI
  6
CONTINUOUS
 62
   215
100
AcDbLine
 10
23.13038063049316
 20
30.58646774291992
 30
0.0
 11
23.13038063049316
 21
28.44216728210449
 31
0.0
  0
LINE
  5
148
330
A
100
AcDbEntity
  8
TFR-TRI
  6
CONTINUOUS
 62
   215
100
AcDbLine
 10
34.53858566284179
 20
7.336394786834716
 30
0.0
 11
34.53858566284179
 21
7.289496421813964
 31
0.0
  0
LINE
  5
149
330
A
100
AcDbEntity
  8
TFR-TRI
  6
CONTINUOUS
 62
   215
100
AcDbLine
 10
23.25368118286132
 20
28.44216728210449
 30
0.0
 11
23.25368118286132
 21
28.39339447021484
 31
0.0
  0
LINE
  5
14A
330
A
100
AcDbEntity
  8
TFR-TRI
  6
CONTINUOUS
 62
   215
100
AcDbLine
 10
23.25368118286132
 20
28.34649658203125
 30
0.0
 11
23.25368118286132
 21
28.30327415466308
 31
0.0
  0
LINE
  5
14B
330
A
100
AcDbEntity
  8
TFR-TRI
  6
CONTINUOUS
 62
   215
100
AcDbLine
 10
23.25368118286132
 20
28.26539039611816
 30
0.0
 11
23.25368118286132
 21
28.23429870605469
 31
0.0
  0
LINE
  5
14C
330
A
100
AcDbEntity
  8
TFR-TRI
  6
CONTINUOUS
 62
   215
100
AcDbLine
 10
23.25368118286132
 20
28.21119689941406
 30
0.0
 11
23.25368118286132
 21
28.19696998596191
 31
0.0
  0
LINE
  5
14D
330
A
100
AcDbEntity
  8
TFR-TRI
  6
CONTINUOUS
 62
   215
100
AcDbLine
 10
23.25368118286132
 20
28.19216728210449
 30
0.0
 11
23.13038063049316
 21
28.19216728210449
 31
0.0
  0
LINE
  5
14E
330
A
100
AcDbEntity
  8
TFR-TRI
  6
CONTINUOUS
 62
   215
100
AcDbLine
 10
34.53858566284179
 20
11.86072349548339
 30
0.0
 11
34.41528701782226
 21
11.86072349548339
 31
0.0
  0
LINE
  5
14F
330
A
100
AcDbEntity
  8
TFR-TRI
  6
CONTINUOUS
 62
   215
100
AcDbLine
 10
23.13038063049316
 20
28.44216728210449
 30
0.0
 11
23.25368118286132
 21
28.44216728210449
 31
0.0
  0
LINE
  5
150
330
A
100
AcDbEntity
  8
TFR-TRI
  6
CONTINUOUS
 62
   215
100
AcDbLine
 10
26.40113067626953
 20
11.73822402954101
 30
0.0
 11
26.21363067626953
 21
11.73822402954101
 31
0.0
  0
LINE
  5
151
330
A
100
AcDbEntity
  8
TFR-TRI
  6
CONTINUOUS
 62
   215
100
AcDbLine
 10
24.65113067626953
 20
30.89471626281738
 30
0.0
 11
24.65113067626953
 21
30.77141761779785
 31
0.0
  0
LINE
  5
152
330
A
100
AcDbEntity
  8
TFR-TRI
  6
CONTINUOUS
 62
   215
100
AcDbLine
 10
34.27149200439453
 20
23.92572402954101
 30
0.0
 11
34.31058502197265
 21
23.92572402954101
 31
0.0
  0
LINE
  5
153
330
A
100
AcDbEntity
  8
TFR-TRI
  6
CONTINUOUS
 62
   215
100
AcDbLine
 10
26.21363067626953
 20
11.48822402954101
 30
0.0
 11
26.40113067626953
 21
11.48822402954101
 31
0.0
  0
LINE
  5
154
330
A
100
AcDbEntity
  8
TFR-TRI
  6
CONTINUOUS
 62
   215
100
AcDbLine
 10
34.41064834594726
 20
24.61322402954101
 30
0.0
 11
34.39697265625
 21
24.61322402954101
 31
0.0
  0
LINE
  5
155
330
A
100
AcDbEntity
  8
TFR-TRI
  6
CONTINUOUS
 62
   215
100
AcDbLine
 10
23.25368118286132
 20
5.488223552703857
 30
0.0
 11
23.13038063049316
 21
5.488223552703857
 31
0.0
  0
LINE
  5
156
330
A
100
AcDbEntity
  8
TFR-TRI
  6
CONTINUOUS
 62
   215
100
AcDbLine
 10
23.13038063049316
 20
5.738223552703857
 30
0.0
 11
23.13038063049316
 21
5.925723552703857
 31
0.0
  0
LINE
  5
157
330
A
100
AcDbEntity
  8
TFR-TRI
  6
CONTINUOUS
 62
   215
100
AcDbLine
 10
23.13038063049316
 20
5.974496364593505
 30
0.0
 11
23.13038063049316
 21
6.021394729614257
 31
0.0
  0
LINE
  5
158
330
A
100
AcDbEntity
  8
TFR-TRI
  6
CONTINUOUS
 62
   215
100
AcDbLine
 10
23.13038063049316
 20
6.064616203308105
 30
0.0
 11
23.13038063049316
 21
6.102500438690185
 31
0.0
  0
LINE
  5
159
330
A
100
AcDbEntity
  8
TFR-TRI
  6
CONTINUOUS
 62
   215
100
AcDbLine
 10
34.53858566284179
 20
8.419386863708496
 30
0.0
 11
34.53858566284179
 21
8.360723495483398
 31
0.0
  0
LINE
  5
15A
330
A
100
AcDbEntity
  8
TFR-TRI
  6
CONTINUOUS
 62
   215
100
AcDbLine
 10
34.41528701782226
 20
21.64530372619628
 30
0.0
 11
34.41528701782226
 21
21.69547653198242
 31
0.0
  0
LINE
  5
15B
330
A
100
AcDbEntity
  8
TFR-TRI
  6
CONTINUOUS
 62
   215
100
AcDbLine
 10
34.53858566284179
 20
21.64530372619628
 30
0.0
 11
34.53858566284179
 21
21.60055923461914
 31
0.0
  0
LINE
  5
15C
330
A
100
AcDbEntity
  8
TFR-TRI
  6
CONTINUOUS
 62
   215
100
AcDbLine
 10
34.27149200439453
 20
5.488223552703857
 30
0.0
 11
34.2303352355957
 21
5.488223552703857
 31
0.0
  0
LINE
  5
15D
330
A
100
AcDbEntity
  8
TFR-TRI
  6
CONTINUOUS
 62
   215
100
AcDbLine
 10
34.53858566284179
 20
21.48591995239257
 30
0.0
 11
34.53858566284179
 21
21.47169303894043
 31
0.0
  0
LINE
  5
15E
330
A
100
AcDbEntity
  8
TFR-TRI
  6
CONTINUOUS
 62
   215
100
AcDbLine
 10
34.41528701782226
 20
12.16410541534423
 30
0.0
 11
34.41528701782226
 21
12.19485092163085
 31
0.0
  0
LINE
  5
15F
330
A
100
AcDbEntity
  8
TFR-TRI
  6
CONTINUOUS
 62
   215
100
AcDbLine
 10
34.41528701782226
 20
12.27785682678222
 30
0.0
 11
34.41528701782226
 21
12.30894756317138
 31
0.0
  0
LINE
  5
160
330
A
100
AcDbEntity
  8
TFR-TRI
  6
CONTINUOUS
 62
   215
100
AcDbLine
 10
24.49680137634277
 20
30.89471626281738
 30
0.0
 11
24.54002380371093
 21
30.89471626281738
 31
0.0
  0
LINE
  5
161
330
A
100
AcDbEntity
  8
TFR-TRI
  6
CONTINUOUS
 62
   215
100
AcDbLine
 10
34.27149200439453
 20
6.175723552703857
 30
0.0
 11
34.2303352355957
 21
6.175723552703857
 31
0.0
  0
LINE
  5
162
330
A
100
AcDbEntity
  8
TFR-TRI
  6
CONTINUOUS
 62
   215
100
AcDbLine
 10
34.53858566284179
 20
21.24072456359863
 30
0.0
 11
34.53858566284179
 21
19.4857234954834
 31
0.0
  0
LINE
  5
163
330
A
100
AcDbEntity
  8
TFR-TRI
  6
CONTINUOUS
 62
   215
100
AcDbLine
 10
34.41528701782226
 20
22.73572349548339
 30
0.0
 11
34.41528701782226
 21
22.74052810668945
 31
0.0
  0
LINE
  5
164
330
A
100
AcDbEntity
  8
TFR-TRI
  6
CONTINUOUS
 62
   215
100
AcDbLine
 10
34.53858566284179
 20
19.25475311279297
 30
0.0
 11
34.53858566284179
 21
19.24052810668945
 31
0.0
  0
LINE
  5
165
330
A
100
AcDbEntity
  8
TFR-TRI
  6
CONTINUOUS
 62
   215
100
AcDbLine
 10
34.53858566284179
 20
12.48572349548339
 30
0.0
 11
34.41528701782226
 21
12.48572349548339
 31
0.0
  0
LINE
  5
166
330
A
100
AcDbEntity
  8
TFR-TRI
  6
CONTINUOUS
 62
   215
100
AcDbLine
 10
34.41528701782226
 20
7.562342643737792
 30
0.0
 11
34.41528701782226
 21
7.600558757781982
 31
0.0
  0
LINE
  5
167
330
A
100
AcDbEntity
  8
TFR-TRI
  6
CONTINUOUS
 62
   215
100
AcDbLine
 10
34.53858566284179
 20
19.23572349548339
 30
0.0
 11
34.41528701782226
 21
19.23572349548339
 31
0.0
  0
LINE
  5
168
330
A
100
AcDbEntity
  8
TFR-TRI
  6
CONTINUOUS
 62
   215
100
AcDbLine
 10
34.53858566284179
 20
19.12588882446289
 30
0.0
 11
34.53858566284179
 21
19.0811424255371
 31
0.0
  0
LINE
  5
169
330
A
100
AcDbEntity
  8
TFR-TRI
  6
CONTINUOUS
 62
   215
100
AcDbLine
 10
34.41528701782226
 20
8.694850921630859
 30
0.0
 11
34.41528701782226
 21
8.71737003326416
 31
0.0
  0
LINE
  5
16A
330
A
100
AcDbEntity
  8
TFR-TRI
  6
CONTINUOUS
 62
   215
100
AcDbLine
 10
34.41528701782226
 20
11.00907802581787
 30
0.0
 11
34.41528701782226
 21
11.03159618377685
 31
0.0
  0
LINE
  5
16B
330
A
100
AcDbEntity
  8
TFR-TRI
  6
CONTINUOUS
 62
   215
100
AcDbLine
 10
34.41528701782226
 20
11.1453046798706
 30
0.0
 11
34.41528701782226
 21
11.19547748565673
 31
0.0
  0
LINE
  5
16C
330
A
100
AcDbEntity
  8
TFR-TRI
  6
CONTINUOUS
 62
   215
100
AcDbLine
 10
34.53858566284179
 20
18.30706024169922
 30
0.0
 11
34.53858566284179
 21
18.24984169006347
 31
0.0
  0
LINE
  5
16D
330
A
100
AcDbEntity
  8
TFR-TRI
  6
CONTINUOUS
 62
   215
100
AcDbLine
 10
34.41528701782226
 20
11.86072349548339
 30
0.0
 11
34.41528701782226
 21
11.36572360992431
 31
0.0
  0
LINE
  5
16E
330
A
100
AcDbEntity
  8
TFR-TRI
  6
CONTINUOUS
 62
   215
100
AcDbLine
 10
34.41528701782226
 20
11.91938686370849
 30
0.0
 11
34.41528701782226
 21
11.97660541534423
 31
0.0
  0
LINE
  5
16F
330
A
100
AcDbEntity
  8
TFR-TRI
  6
CONTINUOUS
 62
   215
100
AcDbLine
 10
34.41528701782226
 20
12.03097057342529
 30
0.0
 11
34.41528701782226
 21
12.08114337921142
 31
0.0
  0
LINE
  5
170
330
A
100
AcDbEntity
  8
TFR-TRI
  6
CONTINUOUS
 62
   215
100
AcDbLine
 10
34.41528701782226
 20
12.12588882446289
 30
0.0
 11
34.41528701782226
 21
12.16410541534423
 31
0.0
  0
LINE
  5
171
330
A
100
AcDbEntity
  8
TFR-TRI
  6
CONTINUOUS
 62
   215
100
AcDbLine
 10
34.53858566284179
 20
18.00907707214355
 30
0.0
 11
34.53858566284179
 21
17.99534034729004
 31
0.0
  0
LINE
  5
172
330
A
100
AcDbEntity
  8
TFR-TRI
  6
CONTINUOUS
 62
   215
100
AcDbLine
 10
34.41528701782226
 20
12.23110675811767
 30
0.0
 11
34.41528701782226
 21
12.23572349548339
 31
0.0
  0
LINE
  5
173
330
A
100
AcDbEntity
  8
TFR-TRI
  6
CONTINUOUS
 62
   215
100
AcDbLine
 10
34.41528701782226
 20
12.3468313217163
 30
0.0
 11
34.41528701782226
 21
12.39005279541015
 31
0.0
  0
LINE
  5
174
330
A
100
AcDbEntity
  8
TFR-TRI
  6
CONTINUOUS
 62
   215
100
AcDbLine
 10
34.53858566284179
 20
17.8796157836914
 30
0.0
 11
34.53858566284179
 21
17.83639526367187
 31
0.0
  0
LINE
  5
175
330
A
100
AcDbEntity
  8
TFR-TRI
  6
CONTINUOUS
 62
   215
100
AcDbLine
 10
23.13038063049316
 20
30.58646774291992
 30
0.0
 11
23.25368118286132
 21
30.58646774291992
 31
0.0
  0
LINE
  5
176
330
A
100
AcDbEntity
  8
TFR-TRI
  6
CONTINUOUS
 62
   215
100
AcDbLine
 10
34.41528701782226
 20
17.74072456359863
 30
0.0
 11
34.41528701782226
 21
17.78949546813964
 31
0.0
  0
LINE
  5
177
330
A
100
AcDbEntity
  8
TFR-TRI
  6
CONTINUOUS
 62
   215
100
AcDbLine
 10
34.41528701782226
 20
17.83639526367187
 30
0.0
 11
34.41528701782226
 21
17.8796157836914
 31
0.0
  0
LINE
  5
178
330
A
100
AcDbEntity
  8
TFR-TRI
  6
CONTINUOUS
 62
   215
100
AcDbLine
 10
34.41528701782226
 20
17.91749954223632
 30
0.0
 11
34.41528701782226
 21
17.9485912322998
 31
0.0
  0
LINE
  5
179
330
A
100
AcDbEntity
  8
TFR-TRI
  6
CONTINUOUS
 62
   215
100
AcDbLine
 10
34.41528701782226
 20
17.99072456359863
 30
0.0
 11
34.41528701782226
 21
17.99534034729004
 31
0.0
  0
LINE
  5
17A
330
A
100
AcDbEntity
  8
TFR-TRI
  6
CONTINUOUS
 62
   215
100
AcDbLine
 10
34.41528701782226
 20
18.00907707214355
 30
0.0
 11
34.41528701782226
 21
18.03159713745117
 31
0.0
  0
LINE
  5
17B
330
A
100
AcDbEntity
  8
TFR-TRI
  6
CONTINUOUS
 62
   215
100
AcDbLine
 10
34.41528701782226
 20
18.06234169006347
 30
0.0
 11
34.41528701782226
 21
18.10055923461914
 31
0.0
  0
LINE
  5
17C
330
A
100
AcDbEntity
  8
TFR-TRI
  6
CONTINUOUS
 62
   215
100
AcDbLine
 10
34.41528701782226
 20
18.14530372619628
 30
0.0
 11
34.41528701782226
 21
18.19547653198242
 31
0.0
  0
LINE
  5
17D
330
A
100
AcDbEntity
  8
TFR-TRI
  6
CONTINUOUS
 62
   215
100
AcDbLine
 10
34.41528701782226
 20
18.24984169006347
 30
0.0
 11
34.41528701782226
 21
18.30706024169922
 31
0.0
  0
LINE
  5
17E
330
A
100
AcDbEntity
  8
TFR-TRI
  6
CONTINUOUS
 62
   215
100
AcDbLine
 10
34.41528701782226
 20
18.8607234954834
 30
0.0
 11
34.41528701782226
 21
18.36572456359863
 31
0.0
  0
LINE
  5
17F
330
A
100
AcDbEntity
  8
TFR-TRI
  6
CONTINUOUS
 62
   215
100
AcDbLine
 10
34.41528701782226
 20
18.91938591003418
 30
0.0
 11
34.41528701782226
 21
18.97660446166992
 31
0.0
  0
LINE
  5
180
330
A
100
AcDbEntity
  8
TFR-TRI
  6
CONTINUOUS
 62
   215
100
AcDbLine
 10
26.27613067626953
 20
19.23572349548339
 30
0.0
 11
24.90113067626953
 21
19.23572349548339
 31
0.0
  0
LINE
  5
181
330
A
100
AcDbEntity
  8
TFR-TRI
  6
CONTINUOUS
 62
   215
100
AcDbLine
 10
34.41528701782226
 20
19.03096961975097
 30
0.0
 11
34.41528701782226
 21
19.0811424255371
 31
0.0
  0
LINE
  5
182
330
A
100
AcDbEntity
  8
TFR-TRI
  6
CONTINUOUS
 62
   215
100
AcDbLine
 10
34.41528701782226
 20
19.12588882446289
 30
0.0
 11
34.41528701782226
 21
19.16410446166992
 31
0.0
  0
LINE
  5
183
330
A
100
AcDbEntity
  8
TFR-TRI
  6
CONTINUOUS
 62
   215
100
AcDbLine
 10
34.53858566284179
 20
22.5811424255371
 30
0.0
 11
34.53858566284179
 21
22.53096961975097
 31
0.0
  0
LINE
  5
184
330
A
100
AcDbEntity
  8
TFR-TRI
  6
CONTINUOUS
 62
   215
100
AcDbLine
 10
34.41528701782226
 20
19.19485092163085
 30
0.0
 11
34.41528701782226
 21
19.21736907958984
 31
0.0
  0
LINE
  5
185
330
A
100
AcDbEntity
  8
TFR-TRI
  6
CONTINUOUS
 62
   215
100
AcDbLine
 10
34.41528701782226
 20
19.24052810668945
 30
0.0
 11
34.41528701782226
 21
19.25475311279297
 31
0.0
  0
LINE
  5
186
330
A
100
AcDbEntity
  8
TFR-TRI
  6
CONTINUOUS
 62
   215
100
AcDbLine
 10
34.41528701782226
 20
19.27785682678222
 30
0.0
 11
34.41528701782226
 21
19.30894660949707
 31
0.0
  0
LINE
  5
187
330
A
100
AcDbEntity
  8
TFR-TRI
  6
CONTINUOUS
 62
   215
100
AcDbLine
 10
34.41528701782226
 20
19.34683036804199
 30
0.0
 11
34.41528701782226
 21
19.39005279541015
 31
0.0
  0
LINE
  5
188
330
A
100
AcDbEntity
  8
TFR-TRI
  6
CONTINUOUS
 62
   215
100
AcDbLine
 10
34.41528701782226
 20
19.43695068359375
 30
0.0
 11
34.41528701782226
 21
19.4857234954834
 31
0.0
  0
LINE
  5
189
330
A
100
AcDbEntity
  8
TFR-TRI
  6
CONTINUOUS
 62
   215
100
AcDbLine
 10
34.41528701782226
 20
21.24072456359863
 30
0.0
 11
34.41528701782226
 21
21.28949546813964
 31
0.0
  0
LINE
  5
18A
330
A
100
AcDbEntity
  8
TFR-TRI
  6
CONTINUOUS
 62
   215
100
AcDbLine
 10
34.41528701782226
 20
21.33639526367187
 30
0.0
 11
34.41528701782226
 21
21.3796157836914
 31
0.0
  0
LINE
  5
18B
330
A
100
AcDbEntity
  8
TFR-TRI
  6
CONTINUOUS
 62
   215
100
AcDbLine
 10
34.53858566284179
 20
17.99534034729004
 30
0.0
 11
34.53858566284179
 21
17.99072456359863
 31
0.0
  0
LINE
  5
18C
330
A
100
AcDbEntity
  8
TFR-TRI
  6
CONTINUOUS
 62
   215
100
AcDbLine
 10
23.13038063049316
 20
6.133591175079345
 30
0.0
 11
23.13038063049316
 21
6.156693458557128
 31
0.0
  0
LINE
  5
18D
330
A
100
AcDbEntity
  8
TFR-TRI
  6
CONTINUOUS
 62
   215
100
AcDbLine
 10
34.41528701782226
 20
21.47169303894043
 30
0.0
 11
34.41528701782226
 21
21.48591995239257
 31
0.0
  0
LINE
  5
18E
330
A
100
AcDbEntity
  8
TFR-TRI
  6
CONTINUOUS
 62
   215
100
AcDbLine
 10
23.13038063049316
 20
6.170919895172119
 30
0.0
 11
23.13038063049316
 21
6.175723552703857
 31
0.0
  0
LINE
  5
18F
330
A
100
AcDbEntity
  8
TFR-TRI
  6
CONTINUOUS
 62
   215
100
AcDbLine
 10
34.41528701782226
 20
8.808947563171386
 30
0.0
 11
34.41528701782226
 21
8.846831321716308
 31
0.0
  0
LINE
  5
190
330
A
100
AcDbEntity
  8
TFR-TRI
  6
CONTINUOUS
 62
   215
100
AcDbLine
 10
34.41528701782226
 20
21.49072456359863
 30
0.0
 11
34.41528701782226
 21
21.49534034729004
 31
0.0
  0
LINE
  5
191
330
A
100
AcDbEntity
  8
TFR-TRI
  6
CONTINUOUS
 62
   215
100
AcDbLine
 10
23.13038063049316
 20
5.493027687072753
 30
0.0
 11
23.13038063049316
 21
5.507254123687744
 31
0.0
  0
LINE
  5
192
330
A
100
AcDbEntity
  8
TFR-TRI
  6
CONTINUOUS
 62
   215
100
AcDbLine
 10
34.41528701782226
 20
21.50907707214355
 30
0.0
 11
34.41528701782226
 21
21.53159713745117
 31
0.0
  0
LINE
  5
193
330
A
100
AcDbEntity
  8
TFR-TRI
  6
CONTINUOUS
 62
   215
100
AcDbLine
 10
23.13038063049316
 20
5.530356407165527
 30
0.0
 11
23.13038063049316
 21
5.561447143554687
 31
0.0
  0
LINE
  5
194
330
A
100
AcDbEntity
  8
TFR-TRI
  6
CONTINUOUS
 62
   215
100
AcDbLine
 10
23.13038063049316
 20
5.599331378936767
 30
0.0
 11
23.13038063049316
 21
5.642552852630615
 31
0.0
  0
LINE
  5
195
330
A
100
AcDbEntity
  8
TFR-TRI
  6
CONTINUOUS
 62
   215
100
AcDbLine
 10
34.53858566284179
 20
10.97169399261474
 30
0.0
 11
34.53858566284179
 21
10.9485912322998
 31
0.0
  0
LINE
  5
196
330
A
100
AcDbEntity
  8
TFR-TRI
  6
CONTINUOUS
 62
   215
100
AcDbLine
 10
23.13038063049316
 20
5.689451217651367
 30
0.0
 11
23.13038063049316
 21
5.738223552703857
 31
0.0
  0
LINE
  5
197
330
A
100
AcDbEntity
  8
TFR-TRI
  6
CONTINUOUS
 62
   215
100
AcDbLine
 10
34.41528701782226
 20
21.74984169006347
 30
0.0
 11
34.41528701782226
 21
21.80706024169921
 31
0.0
  0
LINE
  5
198
330
A
100
AcDbEntity
  8
TFR-TRI
  6
CONTINUOUS
 62
   215
100
AcDbLine
 10
23.25368118286132
 20
6.170919895172119
 30
0.0
 11
23.25368118286132
 21
6.156693458557128
 31
0.0
  0
LINE
  5
199
330
A
100
AcDbEntity
  8
TFR-TRI
  6
CONTINUOUS
 62
   215
100
AcDbLine
 10
34.41528701782226
 20
22.3607234954834
 30
0.0
 11
34.41528701782226
 21
21.86572456359863
 31
0.0
  0
LINE
  5
19A
330
A
100
AcDbEntity
  8
TFR-TRI
  6
CONTINUOUS
 62
   215
100
AcDbLine
 10
23.25368118286132
 20
6.133591175079345
 30
0.0
 11
23.25368118286132
 21
6.102500438690185
 31
0.0
  0
LINE
  5
19B
330
A
100
AcDbEntity
  8
TFR-TRI
  6
CONTINUOUS
 62
   215
100
AcDbLine
 10
34.41528701782226
 20
22.41938591003417
 30
0.0
 11
34.41528701782226
 21
22.47660446166992
 31
0.0
  0
LINE
  5
19C
330
A
100
AcDbEntity
  8
TFR-TRI
  6
CONTINUOUS
 62
   215
100
AcDbLine
 10
34.41528701782226
 20
22.53096961975097
 30
0.0
 11
34.41528701782226
 21
22.5811424255371
 31
0.0
  0
LINE
  5
19D
330
A
100
AcDbEntity
  8
TFR-TRI
  6
CONTINUOUS
 62
   215
100
AcDbLine
 10
23.25368118286132
 20
5.974496364593505
 30
0.0
 11
23.25368118286132
 21
5.925723552703857
 31
0.0
  0
LINE
  5
19E
330
A
100
AcDbEntity
  8
TFR-TRI
  6
CONTINUOUS
 62
   215
100
AcDbLine
 10
34.41528701782226
 20
22.62588882446288
 30
0.0
 11
34.41528701782226
 21
22.66410446166992
 31
0.0
  0
LINE
  5
19F
330
A
100
AcDbEntity
  8
TFR-TRI
  6
CONTINUOUS
 62
   215
100
AcDbLine
 10
34.53858566284179
 20
8.985723495483398
 30
0.0
 11
34.53858566284179
 21
8.936951637268066
 31
0.0
  0
LINE
  5
1A0
330
A
100
AcDbEntity
  8
TFR-TRI
  6
CONTINUOUS
 62
   215
100
AcDbLine
 10
23.25368118286132
 20
5.738223552703857
 30
0.0
 11
23.25368118286132
 21
5.689451217651367
 31
0.0
  0
LINE
  5
1A1
330
A
100
AcDbEntity
  8
TFR-TRI
  6
CONTINUOUS
 62
   215
100
AcDbLine
 10
34.41528701782226
 20
22.73110771179199
 30
0.0
 11
34.41528701782226
 21
22.73572349548339
 31
0.0
  0
LINE
  5
1A2
330
A
100
AcDbEntity
  8
TFR-TRI
  6
CONTINUOUS
 62
   215
100
AcDbLine
 10
23.25368118286132
 20
5.561447143554687
 30
0.0
 11
23.25368118286132
 21
5.530356407165527
 31
0.0
  0
LINE
  5
1A3
330
A
100
AcDbEntity
  8
TFR-TRI
  6
CONTINUOUS
 62
   215
100
AcDbLine
 10
34.41528701782226
 20
22.74052810668945
 30
0.0
 11
34.41528701782226
 21
22.75475311279297
 31
0.0
  0
LINE
  5
1A4
330
A
100
AcDbEntity
  8
TFR-TRI
  6
CONTINUOUS
 62
   215
100
AcDbLine
 10
23.25368118286132
 20
5.507254123687744
 30
0.0
 11
23.25368118286132
 21
5.493027687072753
 31
0.0
  0
LINE
  5
1A5
330
A
100
AcDbEntity
  8
TFR-TRI
  6
CONTINUOUS
 62
   215
100
AcDbLine
 10
34.41528701782226
 20
22.77785682678222
 30
0.0
 11
34.41528701782226
 21
22.80894660949706
 31
0.0
  0
LINE
  5
1A6
330
A
100
AcDbEntity
  8
TFR-TRI
  6
CONTINUOUS
 62
   215
100
AcDbLine
 10
23.25368118286132
 20
5.925723552703857
 30
0.0
 11
23.13038063049316
 21
5.925723552703857
 31
0.0
  0
LINE
  5
1A7
330
A
100
AcDbEntity
  8
TFR-TRI
  6
CONTINUOUS
 62
   215
100
AcDbLine
 10
34.41528701782226
 20
22.84683036804199
 30
0.0
 11
34.41528701782226
 21
22.89005279541015
 31
0.0
  0
LINE
  5
1A8
330
A
100
AcDbEntity
  8
TFR-TRI
  6
CONTINUOUS
 62
   215
100
AcDbLine
 10
23.25368118286132
 20
23.92572402954101
 30
0.0
 11
23.13038063049316
 21
23.92572402954101
 31
0.0
  0
LINE
  5
1A9
330
A
100
AcDbEntity
  8
TFR-TRI
  6
CONTINUOUS
 62
   215
100
AcDbLine
 10
34.41528701782226
 20
22.93695068359375
 30
0.0
 11
34.41528701782226
 21
22.9857234954834
 31
0.0
  0
LINE
  5
1AA
330
A
100
AcDbEntity
  8
TFR-TRI
  6
CONTINUOUS
 62
   215
100
AcDbLine
 10
34.41528701782226
 20
5.488223552703857
 30
0.0
 11
34.41528701782226
 21
5.493027687072753
 31
0.0
  0
LINE
  5
1AB
330
A
100
AcDbEntity
  8
TFR-TRI
  6
CONTINUOUS
 62
   215
100
AcDbLine
 10
34.41528701782226
 20
24.36322402954101
 30
0.0
 11
34.41528701782226
 21
24.41199684143066
 31
0.0
  0
LINE
  5
1AC
330
A
100
AcDbEntity
  8
TFR-TRI
  6
CONTINUOUS
 62
   215
100
AcDbLine
 10
34.41528701782226
 20
5.507254123687744
 30
0.0
 11
34.41528701782226
 21
5.530356407165527
 31
0.0
  0
LINE
  5
1AD
330
A
100
AcDbEntity
  8
TFR-TRI
  6
CONTINUOUS
 62
   215
100
AcDbLine
 10
34.41528701782226
 20
5.561447143554687
 30
0.0
 11
34.41528701782226
 21
5.599331378936767
 31
0.0
  0
LINE
  5
1AE
330
A
100
AcDbEntity
  8
TFR-TRI
  6
CONTINUOUS
 62
   215
100
AcDbLine
 10
34.41528701782226
 20
24.54000091552734
 30
0.0
 11
34.41528701782226
 21
24.57109069824218
 31
0.0
  0
LINE
  5
1AF
330
A
100
AcDbEntity
  8
TFR-TRI
  6
CONTINUOUS
 62
   215
100
AcDbLine
 10
34.53858566284179
 20
18.14530372619628
 30
0.0
 11
34.53858566284179
 21
18.10055923461914
 31
0.0
  0
LINE
  5
1B0
330
A
100
AcDbEntity
  8
TFR-TRI
  6
CONTINUOUS
 62
   215
100
AcDbLine
 10
34.41528701782226
 20
5.738223552703857
 30
0.0
 11
34.53858566284179
 21
5.738223552703857
 31
0.0
  0
LINE
  5
1B1
330
A
100
AcDbEntity
  8
TFR-TRI
  6
CONTINUOUS
 62
   215
100
AcDbLine
 10
34.53858566284179
 20
7.490723609924316
 30
0.0
 11
34.41528701782226
 21
7.490723609924316
 31
0.0
  0
LINE
  5
1B2
330
A
100
AcDbEntity
  8
TFR-TRI
  6
CONTINUOUS
 62
   215
100
AcDbLine
 10
34.39697265625
 20
6.175723552703857
 30
0.0
 11
34.37493515014648
 21
6.175723552703857
 31
0.0
  0
LINE
  5
1B3
330
A
100
AcDbEntity
  8
TFR-TRI
  6
CONTINUOUS
 62
   215
100
AcDbLine
 10
34.53858566284179
 20
12.27785682678222
 30
0.0
 11
34.53858566284179
 21
12.25475406646728
 31
0.0
  0
LINE
  5
1B4
330
A
100
AcDbEntity
  8
TFR-TRI
  6
CONTINUOUS
 62
   215
100
AcDbLine
 10
34.53858566284179
 20
8.62588882446289
 30
0.0
 11
34.53858566284179
 21
8.581143379211425
 31
0.0
  0
LINE
  5
1B5
330
A
100
AcDbEntity
  8
TFR-TRI
  6
CONTINUOUS
 62
   215
100
AcDbLine
 10
34.53858566284179
 20
12.16410541534423
 30
0.0
 11
34.53858566284179
 21
12.12588882446289
 31
0.0
  0
LINE
  5
1B6
330
A
100
AcDbEntity
  8
TFR-TRI
  6
CONTINUOUS
 62
   215
100
AcDbLine
 10
34.53858566284179
 20
11.00907802581787
 30
0.0
 11
34.53858566284179
 21
10.99534034729003
 31
0.0
  0
LINE
  5
1B7
330
A
100
AcDbEntity
  8
TFR-TRI
  6
CONTINUOUS
 62
   215
100
AcDbLine
 10
34.53858566284179
 20
8.530970573425292
 30
0.0
 11
34.53858566284179
 21
8.476605415344238
 31
0.0
  0
LINE
  5
1B8
330
A
100
AcDbEntity
  8
TFR-TRI
  6
CONTINUOUS
 62
   215
100
AcDbLine
 10
34.53858566284179
 20
7.695477485656738
 30
0.0
 11
34.53858566284179
 21
7.645304203033447
 31
0.0
  0
LINE
  5
1B9
330
A
100
AcDbEntity
  8
TFR-TRI
  6
CONTINUOUS
 62
   215
100
AcDbLine
 10
34.53858566284179
 20
12.03097057342529
 30
0.0
 11
34.53858566284179
 21
11.97660541534423
 31
0.0
  0
LINE
  5
1BA
330
A
100
AcDbEntity
  8
TFR-TRI
  6
CONTINUOUS
 62
   215
100
AcDbLine
 10
34.53858566284179
 20
19.4857234954834
 30
0.0
 11
34.41528701782226
 21
19.4857234954834
 31
0.0
  0
LINE
  5
1BB
330
A
100
AcDbEntity
  8
TFR-TRI
  6
CONTINUOUS
 62
   215
100
AcDbLine
 10
34.53858566284179
 20
7.490723609924316
 30
0.0
 11
34.53858566284179
 21
7.485919952392578
 31
0.0
  0
LINE
  5
1BC
330
A
100
AcDbEntity
  8
TFR-TRI
  6
CONTINUOUS
 62
   215
100
AcDbLine
 10
34.53858566284179
 20
11.19547748565673
 30
0.0
 11
34.53858566284179
 21
11.1453046798706
 31
0.0
  0
LINE
  5
1BD
330
A
100
AcDbEntity
  8
TFR-TRI
  6
CONTINUOUS
 62
   215
100
AcDbLine
 10
34.53858566284179
 20
7.289496421813964
 30
0.0
 11
34.53858566284179
 21
7.240723609924316
 31
0.0
  0
LINE
  5
1BE
330
A
100
AcDbEntity
  8
TFR-TRI
  6
CONTINUOUS
 62
   215
100
AcDbLine
 10
34.53858566284179
 20
18.36572456359863
 30
0.0
 11
34.41528701782226
 21
18.36572456359863
 31
0.0
  0
LINE
  5
1BF
330
A
100
AcDbEntity
  8
TFR-TRI
  6
CONTINUOUS
 62
   215
100
AcDbLine
 10
34.39697265625
 20
24.61322402954101
 30
0.0
 11
34.37493515014648
 21
24.61322402954101
 31
0.0
  0
LINE
  5
1C0
330
A
100
AcDbEntity
  8
TFR-TRI
  6
CONTINUOUS
 62
   215
100
AcDbLine
 10
31.8360366821289
 20
24.36322402954101
 30
0.0
 11
31.8360366821289
 21
24.17572402954101
 31
0.0
  0
LINE
  5
1C1
330
A
100
AcDbEntity
  8
TFR-TRI
  6
CONTINUOUS
 62
   215
100
AcDbLine
 10
34.53858566284179
 20
22.41938591003417
 30
0.0
 11
34.53858566284179
 21
22.3607234954834
 31
0.0
  0
LINE
  5
1C2
330
A
100
AcDbEntity
  8
TFR-TRI
  6
CONTINUOUS
 62
   215
100
AcDbLine
 10
34.41528701782226
 20
5.488223552703857
 30
0.0
 11
34.41064834594726
 21
5.488223552703857
 31
0.0
  0
LINE
  5
1C3
330
A
100
AcDbEntity
  8
TFR-TRI
  6
CONTINUOUS
 62
   215
100
AcDbLine
 10
34.53858566284179
 20
21.60055923461914
 30
0.0
 11
34.53858566284179
 21
21.56234169006347
 31
0.0
  0
LINE
  5
1C4
330
A
100
AcDbEntity
  8
TFR-TRI
  6
CONTINUOUS
 62
   215
100
AcDbLine
 10
34.41528701782226
 20
12.43695163726806
 30
0.0
 11
34.41528701782226
 21
12.48572349548339
 31
0.0
  0
LINE
  5
1C5
330
A
100
AcDbEntity
  8
TFR-TRI
  6
CONTINUOUS
 62
   215
100
AcDbLine
 10
34.41528701782226
 20
6.175723552703857
 30
0.0
 11
34.41064834594726
 21
6.175723552703857
 31
0.0
  0
LINE
  5
1C6
330
A
100
AcDbEntity
  8
TFR-TRI
  6
CONTINUOUS
 62
   215
100
AcDbLine
 10
34.41528701782226
 20
22.80894660949706
 30
0.0
 11
34.41528701782226
 21
22.84683036804199
 31
0.0
  0
LINE
  5
1C7
330
A
100
AcDbEntity
  8
TFR-TRI
  6
CONTINUOUS
 62
   215
100
AcDbLine
 10
34.2303352355957
 20
6.175723552703857
 30
0.0
 11
34.2303352355957
 21
5.488223552703857
 31
0.0
  0
LINE
  5
1C8
330
A
100
AcDbEntity
  8
TFR-TRI
  6
CONTINUOUS
 62
   215
100
AcDbLine
 10
34.53858566284179
 20
19.4857234954834
 30
0.0
 11
34.53858566284179
 21
19.43695068359375
 31
0.0
  0
LINE
  5
1C9
330
A
100
AcDbEntity
  8
TFR-TRI
  6
CONTINUOUS
 62
   215
100
AcDbLine
 10
34.53858566284179
 20
19.24052810668945
 30
0.0
 11
34.53858566284179
 21
19.23572349548339
 31
0.0
  0
LINE
  5
1CA
330
A
100
AcDbEntity
  8
TFR-TRI
  6
CONTINUOUS
 62
   215
100
AcDbLine
 10
34.53858566284179
 20
8.735723495483398
 30
0.0
 11
34.41528701782226
 21
8.735723495483398
 31
0.0
  0
LINE
  5
1CB
330
A
100
AcDbEntity
  8
TFR-TRI
  6
CONTINUOUS
 62
   215
100
AcDbLine
 10
34.53858566284179
 20
7.448591232299804
 30
0.0
 11
34.53858566284179
 21
7.417500495910644
 31
0.0
  0
LINE
  5
1CC
330
A
100
AcDbEntity
  8
TFR-TRI
  6
CONTINUOUS
 62
   215
100
AcDbLine
 10
34.53858566284179
 20
21.49072456359863
 30
0.0
 11
34.41528701782226
 21
21.49072456359863
 31
0.0
  0
LINE
  5
1CD
330
A
100
AcDbEntity
  8
TFR-TRI
  6
CONTINUOUS
 62
   215
100
AcDbLine
 10
34.53858566284179
 20
19.0811424255371
 30
0.0
 11
34.53858566284179
 21
19.03096961975097
 31
0.0
  0
LINE
  5
1CE
330
A
100
AcDbEntity
  8
TFR-TRI
  6
CONTINUOUS
 62
   215
100
AcDbLine
 10
34.53858566284179
 20
24.41199684143066
 30
0.0
 11
34.53858566284179
 21
24.36322402954101
 31
0.0
  0
LINE
  5
1CF
330
A
100
AcDbEntity
  8
TFR-TRI
  6
CONTINUOUS
 62
   215
100
AcDbLine
 10
34.53858566284179
 20
22.9857234954834
 30
0.0
 11
34.53858566284179
 21
22.93695068359375
 31
0.0
  0
LINE
  5
1D0
330
A
100
AcDbEntity
  8
TFR-TRI
  6
CONTINUOUS
 62
   215
100
AcDbLine
 10
34.53858566284179
 20
22.89005279541015
 30
0.0
 11
34.53858566284179
 21
22.84683036804199
 31
0.0
  0
LINE
  5
1D1
330
A
100
AcDbEntity
  8
TFR-TRI
  6
CONTINUOUS
 62
   215
100
AcDbLine
 10
34.53858566284179
 20
8.581143379211425
 30
0.0
 11
34.53858566284179
 21
8.530970573425292
 31
0.0
  0
LINE
  5
1D2
330
A
100
AcDbEntity
  8
TFR-TRI
  6
CONTINUOUS
 62
   215
100
AcDbLine
 10
34.53858566284179
 20
22.80894660949706
 30
0.0
 11
34.53858566284179
 21
22.77785682678222
 31
0.0
  0
LINE
  5
1D3
330
A
100
AcDbEntity
  8
TFR-TRI
  6
CONTINUOUS
 62
   215
100
AcDbLine
 10
34.53858566284179
 20
18.24984169006347
 30
0.0
 11
34.53858566284179
 21
18.19547653198242
 31
0.0
  0
LINE
  5
1D4
330
A
100
AcDbEntity
  8
TFR-TRI
  6
CONTINUOUS
 62
   215
100
AcDbLine
 10
24.69326400756836
 20
30.89471626281738
 30
0.0
 11
24.7243537902832
 21
30.89471626281738
 31
0.0
  0
LINE
  5
1D5
330
A
100
AcDbEntity
  8
TFR-TRI
  6
CONTINUOUS
 62
   215
100
AcDbLine
 10
34.53858566284179
 20
22.73572349548339
 30
0.0
 11
34.53858566284179
 21
22.73110771179199
 31
0.0
  0
LINE
  5
1D6
330
A
100
AcDbEntity
  8
TFR-TRI
  6
CONTINUOUS
 62
   215
100
AcDbLine
 10
34.53858566284179
 20
22.71736907958984
 30
0.0
 11
34.53858566284179
 21
22.69485092163086
 31
0.0
  0
LINE
  5
1D7
330
A
100
AcDbEntity
  8
TFR-TRI
  6
CONTINUOUS
 62
   215
100
AcDbLine
 10
34.53858566284179
 20
22.66410446166992
 30
0.0
 11
34.53858566284179
 21
22.62588882446288
 31
0.0
  0
LINE
  5
1D8
330
A
100
AcDbEntity
  8
TFR-TRI
  6
CONTINUOUS
 62
   215
100
AcDbLine
 10
34.41528701782226
 20
19.23110771179199
 30
0.0
 11
34.41528701782226
 21
19.23572349548339
 31
0.0
  0
LINE
  5
1D9
330
A
100
AcDbEntity
  8
TFR-TRI
  6
CONTINUOUS
 62
   215
100
AcDbLine
 10
24.76223754882812
 20
30.77141761779785
 30
0.0
 11
24.7243537902832
 21
30.77141761779785
 31
0.0
  0
LINE
  5
1DA
330
A
100
AcDbEntity
  8
TFR-TRI
  6
CONTINUOUS
 62
   215
100
AcDbLine
 10
26.63277626037597
 20
30.89471626281738
 30
0.0
 11
26.64651298522949
 21
30.89471626281738
 31
0.0
  0
LINE
  5
1DB
330
A
100
AcDbEntity
  8
TFR-TRI
  6
CONTINUOUS
 62
   215
100
AcDbLine
 10
34.53858566284179
 20
17.83639526367187
 30
0.0
 11
34.53858566284179
 21
17.78949546813964
 31
0.0
  0
LINE
  5
1DC
330
A
100
AcDbEntity
  8
TFR-TRI
  6
CONTINUOUS
 62
   215
100
AcDbLine
 10
24.90113067626953
 20
30.89471626281738
 30
0.0
 11
26.27613067626953
 21
30.89471626281738
 31
0.0
  0
LINE
  5
1DD
330
A
100
AcDbEntity
  8
TFR-TRI
  6
CONTINUOUS
 62
   215
100
AcDbLine
 10
26.33479309082031
 20
30.89471626281738
 30
0.0
 11
26.39201164245605
 21
30.89471626281738
 31
0.0
  0
LINE
  5
1DE
330
A
100
AcDbEntity
  8
TFR-TRI
  6
CONTINUOUS
 62
   215
100
AcDbLine
 10
26.44637680053711
 20
30.89471626281738
 30
0.0
 11
26.49654960632324
 21
30.89471626281738
 31
0.0
  0
LINE
  5
1DF
330
A
100
AcDbEntity
  8
TFR-TRI
  6
CONTINUOUS
 62
   215
100
AcDbLine
 10
26.54129600524902
 20
30.89471626281738
 30
0.0
 11
26.57951164245605
 21
30.89471626281738
 31
0.0
  0
LINE
  5
1E0
330
A
100
AcDbEntity
  8
TFR-TRI
  6
CONTINUOUS
 62
   215
100
AcDbLine
 10
23.29403114318847
 20
5.488223552703857
 30
0.0
 11
23.27199554443359
 21
5.488223552703857
 31
0.0
  0
LINE
  5
1E1
330
A
100
AcDbEntity
  8
TFR-TRI
  6
CONTINUOUS
 62
   215
100
AcDbLine
 10
34.53858566284179
 20
22.73110771179199
 30
0.0
 11
34.53858566284179
 21
22.71736907958984
 31
0.0
  0
LINE
  5
1E2
330
A
100
AcDbEntity
  8
TFR-TRI
  6
CONTINUOUS
 62
   215
100
AcDbLine
 10
34.53858566284179
 20
10.9485912322998
 30
0.0
 11
34.53858566284179
 21
10.91750049591064
 31
0.0
  0
LINE
  5
1E3
330
A
100
AcDbEntity
  8
TFR-TRI
  6
CONTINUOUS
 62
   215
100
AcDbLine
 10
34.37493515014648
 20
5.488223552703857
 30
0.0
 11
34.34564971923828
 21
5.488223552703857
 31
0.0
  0
LINE
  5
1E4
330
A
100
AcDbEntity
  8
TFR-TRI
  6
CONTINUOUS
 62
   215
100
AcDbLine
 10
34.41528701782226
 20
5.689451217651367
 30
0.0
 11
34.41528701782226
 21
5.738223552703857
 31
0.0
  0
LINE
  5
1E5
330
A
100
AcDbEntity
  8
TFR-TRI
  6
CONTINUOUS
 62
   215
100
AcDbLine
 10
34.41528701782226
 20
7.240723609924316
 30
0.0
 11
34.41528701782226
 21
7.289496421813964
 31
0.0
  0
LINE
  5
1E6
330
A
100
AcDbEntity
  8
TFR-TRI
  6
CONTINUOUS
 62
   215
100
AcDbLine
 10
24.65593338012695
 20
30.89471626281738
 30
0.0
 11
24.6701602935791
 21
30.89471626281738
 31
0.0
  0
LINE
  5
1E7
330
A
100
AcDbEntity
  8
TFR-TRI
  6
CONTINUOUS
 62
   215
100
AcDbLine
 10
24.57790756225586
 20
30.77141761779785
 30
0.0
 11
24.54002380371093
 21
30.77141761779785
 31
0.0
  0
LINE
  5
1E8
330
A
100
AcDbEntity
  8
TFR-TRI
  6
CONTINUOUS
 62
   215
100
AcDbLine
 10
24.49680137634277
 20
30.77141761779785
 30
0.0
 11
24.44990348815918
 21
30.77141761779785
 31
0.0
  0
LINE
  5
1E9
330
A
100
AcDbEntity
  8
TFR-TRI
  6
CONTINUOUS
 62
   215
100
AcDbLine
 10
34.53858566284179
 20
19.23110771179199
 30
0.0
 11
34.53858566284179
 21
19.21736907958984
 31
0.0
  0
LINE
  5
1EA
330
A
100
AcDbEntity
  8
TFR-TRI
  6
CONTINUOUS
 62
   215
100
AcDbLine
 10
26.21363067626953
 20
22.23822402954101
 30
0.0
 11
26.40113067626953
 21
22.23822402954101
 31
0.0
  0
LINE
  5
1EB
330
A
100
AcDbEntity
  8
TFR-TRI
  6
CONTINUOUS
 62
   215
100
AcDbLine
 10
34.53858566284179
 20
8.731106758117675
 30
0.0
 11
34.53858566284179
 21
8.71737003326416
 31
0.0
  0
LINE
  5
1EC
330
A
100
AcDbEntity
  8
TFR-TRI
  6
CONTINUOUS
 62
   215
100
AcDbLine
 10
34.41528701782226
 20
21.41749954223632
 30
0.0
 11
34.41528701782226
 21
21.4485912322998
 31
0.0
  0
LINE
  5
1ED
330
A
100
AcDbEntity
  8
TFR-TRI
  6
CONTINUOUS
 62
   215
100
AcDbLine
 10
34.53858566284179
 20
7.645304203033447
 30
0.0
 11
34.53858566284179
 21
7.600558757781982
 31
0.0
  0
LINE
  5
1EE
330
A
100
AcDbEntity
  8
TFR-TRI
  6
CONTINUOUS
 62
   215
100
AcDbLine
 10
34.53858566284179
 20
11.97660541534423
 30
0.0
 11
34.53858566284179
 21
11.91938686370849
 31
0.0
  0
LINE
  5
1EF
330
A
100
AcDbEntity
  8
TFR-TRI
  6
CONTINUOUS
 62
   215
100
AcDbLine
 10
34.53858566284179
 20
7.485919952392578
 30
0.0
 11
34.53858566284179
 21
7.471693515777587
 31
0.0
  0
LINE
  5
1F0
330
A
100
AcDbEntity
  8
TFR-TRI
  6
CONTINUOUS
 62
   215
100
AcDbLine
 10
24.6089973449707
 20
30.77141761779785
 30
0.0
 11
24.57790756225586
 21
30.77141761779785
 31
0.0
  0
LINE
  5
1F1
330
A
100
AcDbEntity
  8
TFR-TRI
  6
CONTINUOUS
 62
   215
100
AcDbLine
 10
34.53858566284179
 20
11.1453046798706
 30
0.0
 11
34.53858566284179
 21
11.10055828094482
 31
0.0
  0
LINE
  5
1F2
330
A
100
AcDbEntity
  8
TFR-TRI
  6
CONTINUOUS
 62
   215
100
AcDbLine
 10
23.13038063049316
 20
5.738223552703857
 30
0.0
 11
23.25368118286132
 21
5.738223552703857
 31
0.0
  0
LINE
  5
1F3
330
A
100
AcDbEntity
  8
TFR-TRI
  6
CONTINUOUS
 62
   215
100
AcDbLine
 10
34.53858566284179
 20
10.99072360992431
 30
0.0
 11
34.41528701782226
 21
10.99072360992431
 31
0.0
  0
LINE
  5
1F4
330
A
100
AcDbEntity
  8
TFR-TRI
  6
CONTINUOUS
 62
   215
100
AcDbLine
 10
23.25368118286132
 20
24.61322402954101
 30
0.0
 11
23.25368118286132
 21
24.60841941833496
 31
0.0
  0
LINE
  5
1F5
330
A
100
AcDbEntity
  8
TFR-TRI
  6
CONTINUOUS
 62
   215
100
AcDbLine
 10
34.53858566284179
 20
5.488223552703857
 30
0.0
 11
34.41528701782226
 21
5.488223552703857
 31
0.0
  0
LINE
  5
1F6
330
A
100
AcDbEntity
  8
TFR-TRI
  6
CONTINUOUS
 62
   215
100
AcDbLine
 10
34.53858566284179
 20
8.777856826782226
 30
0.0
 11
34.53858566284179
 21
8.754754066467285
 31
0.0
  0
LINE
  5
1F7
330
A
100
AcDbEntity
  8
TFR-TRI
  6
CONTINUOUS
 62
   215
100
AcDbLine
 10
34.53858566284179
 20
18.8607234954834
 30
0.0
 11
34.41528701782226
 21
18.8607234954834
 31
0.0
  0
LINE
  5
1F8
330
A
100
AcDbEntity
  8
TFR-TRI
  6
CONTINUOUS
 62
   215
100
AcDbLine
 10
34.41528701782226
 20
21.56234169006347
 30
0.0
 11
34.41528701782226
 21
21.60055923461914
 31
0.0
  0
LINE
  5
1F9
330
A
100
AcDbEntity
  8
TFR-TRI
  6
CONTINUOUS
 62
   215
100
AcDbLine
 10
24.40113067626953
 20
30.89471626281738
 30
0.0
 11
23.43863105773925
 21
30.89471626281738
 31
0.0
  0
LINE
  5
1FA
330
A
100
AcDbEntity
  8
TFR-TRI
  6
CONTINUOUS
 62
   215
100
AcDbLine
 10
24.44990348815918
 20
30.89471626281738
 30
0.0
 11
24.49680137634277
 21
30.89471626281738
 31
0.0
  0
LINE
  5
1FB
330
A
100
AcDbEntity
  8
TFR-TRI
  6
CONTINUOUS
 62
   215
100
AcDbLine
 10
24.54002380371093
 20
30.89471626281738
 30
0.0
 11
24.57790756225586
 21
30.89471626281738
 31
0.0
  0
LINE
  5
1FC
330
A
100
AcDbEntity
  8
TFR-TRI
  6
CONTINUOUS
 62
   215
100
AcDbLine
 10
23.13038063049316
 20
28.30327415466308
 30
0.0
 11
23.13038063049316
 21
28.34649658203125
 31
0.0
  0
LINE
  5
1FD
330
A
100
AcDbEntity
  8
TFR-TRI
  6
CONTINUOUS
 62
   215
100
AcDbLine
 10
34.34564971923828
 20
23.92572402954101
 30
0.0
 11
34.37493515014648
 21
23.92572402954101
 31
0.0
  0
LINE
  5
1FE
330
A
100
AcDbEntity
  8
TFR-TRI
  6
CONTINUOUS
 62
   215
100
AcDbLine
 10
26.54129600524902
 20
30.77141761779785
 30
0.0
 11
26.49654960632324
 21
30.77141761779785
 31
0.0
  0
LINE
  5
1FF
330
A
100
AcDbEntity
  8
TFR-TRI
  6
CONTINUOUS
 62
   215
100
AcDbLine
 10
26.44637680053711
 20
30.77141761779785
 30
0.0
 11
26.39201164245605
 21
30.77141761779785
 31
0.0
  0
LINE
  5
200
330
A
100
AcDbEntity
  8
TFR-TRI
  6
CONTINUOUS
 62
   215
100
AcDbLine
 10
34.37493515014648
 20
24.61322402954101
 30
0.0
 11
34.34564971923828
 21
24.61322402954101
 31
0.0
  0
LINE
  5
201
330
A
100
AcDbEntity
  8
TFR-TRI
  6
CONTINUOUS
 62
   215
100
AcDbLine
 10
34.53858566284179
 20
21.86572456359863
 30
0.0
 11
34.53858566284179
 21
22.3607234954834
 31
0.0
  0
LINE
  5
202
330
A
100
AcDbEntity
  8
TFR-TRI
  6
CONTINUOUS
 62
   215
100
AcDbLine
 10
34.41064834594726
 20
5.488223552703857
 30
0.0
 11
34.39697265625
 21
5.488223552703857
 31
0.0
  0
LINE
  5
203
330
A
100
AcDbEntity
  8
TFR-TRI
  6
CONTINUOUS
 62
   215
100
AcDbLine
 10
34.53858566284179
 20
21.56234169006347
 30
0.0
 11
34.53858566284179
 21
21.53159713745117
 31
0.0
  0
LINE
  5
204
330
A
100
AcDbEntity
  8
TFR-TRI
  6
CONTINUOUS
 62
   215
100
AcDbLine
 10
26.39201164245605
 20
30.77141761779785
 30
0.0
 11
26.33479309082031
 21
30.77141761779785
 31
0.0
  0
LINE
  5
205
330
A
100
AcDbEntity
  8
TFR-TRI
  6
CONTINUOUS
 62
   215
100
AcDbLine
 10
26.27613067626953
 20
30.77141761779785
 30
0.0
 11
24.90113067626953
 21
30.77141761779785
 31
0.0
  0
LINE
  5
206
330
A
100
AcDbEntity
  8
TFR-TRI
  6
CONTINUOUS
 62
   215
100
AcDbLine
 10
24.85235786437988
 20
30.77141761779785
 30
0.0
 11
24.80545997619628
 21
30.77141761779785
 31
0.0
  0
LINE
  5
207
330
A
100
AcDbEntity
  8
TFR-TRI
  6
CONTINUOUS
 62
   215
100
AcDbLine
 10
34.41528701782226
 20
8.936951637268066
 30
0.0
 11
34.41528701782226
 21
8.985723495483398
 31
0.0
  0
LINE
  5
208
330
A
100
AcDbEntity
  8
TFR-TRI
  6
CONTINUOUS
 62
   215
100
AcDbLine
 10
34.41064834594726
 20
6.175723552703857
 30
0.0
 11
34.39697265625
 21
6.175723552703857
 31
0.0
  0
LINE
  5
209
330
A
100
AcDbEntity
  8
TFR-TRI
  6
CONTINUOUS
 62
   215
100
AcDbLine
 10
34.53858566284179
 20
21.4485912322998
 30
0.0
 11
34.53858566284179
 21
21.41749954223632
 31
0.0
  0
LINE
  5
20A
330
A
100
AcDbEntity
  8
TFR-TRI
  6
CONTINUOUS
 62
   215
100
AcDbLine
 10
34.41528701782226
 20
10.74072360992431
 30
0.0
 11
34.41528701782226
 21
10.78949642181396
 31
0.0
  0
LINE
  5
20B
330
A
100
AcDbEntity
  8
TFR-TRI
  6
CONTINUOUS
 62
   215
100
AcDbLine
 10
34.41528701782226
 20
7.645304203033447
 30
0.0
 11
34.41528701782226
 21
7.695477485656738
 31
0.0
  0
LINE
  5
20C
330
A
100
AcDbEntity
  8
TFR-TRI
  6
CONTINUOUS
 62
   215
100
AcDbLine
 10
34.41528701782226
 20
10.83639430999755
 30
0.0
 11
34.41528701782226
 21
10.87961673736572
 31
0.0
  0
LINE
  5
20D
330
A
100
AcDbEntity
  8
TFR-TRI
  6
CONTINUOUS
 62
   215
100
AcDbLine
 10
34.41528701782226
 20
7.749842643737792
 30
0.0
 11
34.41528701782226
 21
7.807060718536376
 31
0.0
  0
LINE
  5
20E
330
A
100
AcDbEntity
  8
TFR-TRI
  6
CONTINUOUS
 62
   215
100
AcDbLine
 10
34.41528701782226
 20
10.91750049591064
 30
0.0
 11
34.41528701782226
 21
10.9485912322998
 31
0.0
  0
LINE
  5
20F
330
A
100
AcDbEntity
  8
TFR-TRI
  6
CONTINUOUS
 62
   215
100
AcDbLine
 10
34.41528701782226
 20
8.360723495483398
 30
0.0
 11
34.41528701782226
 21
7.865723609924316
 31
0.0
  0
LINE
  5
210
330
A
100
AcDbEntity
  8
TFR-TRI
  6
CONTINUOUS
 62
   215
100
AcDbLine
 10
34.41528701782226
 20
10.97169399261474
 30
0.0
 11
34.41528701782226
 21
10.98591995239257
 31
0.0
  0
LINE
  5
211
330
A
100
AcDbEntity
  8
TFR-TRI
  6
CONTINUOUS
 62
   215
100
AcDbLine
 10
34.41528701782226
 20
8.419386863708496
 30
0.0
 11
34.41528701782226
 21
8.476605415344238
 31
0.0
  0
LINE
  5
212
330
A
100
AcDbEntity
  8
TFR-TRI
  6
CONTINUOUS
 62
   215
100
AcDbLine
 10
34.41528701782226
 20
10.99072360992431
 30
0.0
 11
34.41528701782226
 21
10.99534034729003
 31
0.0
  0
LINE
  5
213
330
A
100
AcDbEntity
  8
TFR-TRI
  6
CONTINUOUS
 62
   215
100
AcDbLine
 10
34.2303352355957
 20
5.488223552703857
 30
0.0
 11
32.0860366821289
 21
5.488223552703857
 31
0.0
  0
LINE
  5
214
330
A
100
AcDbEntity
  8
TFR-TRI
  6
CONTINUOUS
 62
   215
100
AcDbLine
 10
34.41528701782226
 20
8.530970573425292
 30
0.0
 11
34.41528701782226
 21
8.581143379211425
 31
0.0
  0
LINE
  5
215
330
A
100
AcDbEntity
  8
TFR-TRI
  6
CONTINUOUS
 62
   215
100
AcDbLine
 10
34.41528701782226
 20
8.62588882446289
 30
0.0
 11
34.41528701782226
 21
8.664105415344238
 31
0.0
  0
LINE
  5
216
330
A
100
AcDbEntity
  8
TFR-TRI
  6
CONTINUOUS
 62
   215
100
AcDbLine
 10
24.65593338012695
 20
30.77141761779785
 30
0.0
 11
24.65113067626953
 21
30.77141761779785
 31
0.0
  0
LINE
  5
217
330
A
100
AcDbEntity
  8
TFR-TRI
  6
CONTINUOUS
 62
   215
100
AcDbLine
 10
34.53858566284179
 20
19.23572349548339
 30
0.0
 11
34.53858566284179
 21
19.23110771179199
 31
0.0
  0
LINE
  5
218
330
A
100
AcDbEntity
  8
TFR-TRI
  6
CONTINUOUS
 62
   215
100
AcDbLine
 10
34.53858566284179
 20
21.24072456359863
 30
0.0
 11
34.41528701782226
 21
21.24072456359863
 31
0.0
  0
LINE
  5
219
330
A
100
AcDbEntity
  8
TFR-TRI
  6
CONTINUOUS
 62
   215
100
AcDbLine
 10
34.53858566284179
 20
19.03096961975097
 30
0.0
 11
34.53858566284179
 21
18.97660446166992
 31
0.0
  0
LINE
  5
21A
330
A
100
AcDbEntity
  8
TFR-TRI
  6
CONTINUOUS
 62
   215
100
AcDbLine
 10
34.53858566284179
 20
8.846831321716308
 30
0.0
 11
34.53858566284179
 21
8.808947563171386
 31
0.0
  0
LINE
  5
21B
330
A
100
AcDbEntity
  8
TFR-TRI
  6
CONTINUOUS
 62
   215
100
AcDbLine
 10
34.53858566284179
 20
18.19547653198242
 30
0.0
 11
34.53858566284179
 21
18.14530372619628
 31
0.0
  0
LINE
  5
21C
330
A
100
AcDbEntity
  8
TFR-TRI
  6
CONTINUOUS
 62
   215
100
AcDbLine
 10
34.53858566284179
 20
17.99072456359863
 30
0.0
 11
34.53858566284179
 21
17.98591995239257
 31
0.0
  0
LINE
  5
21D
330
A
100
AcDbEntity
  8
TFR-TRI
  6
CONTINUOUS
 62
   215
100
AcDbLine
 10
24.80545997619628
 20
30.89471626281738
 30
0.0
 11
24.85235786437988
 21
30.89471626281738
 31
0.0
  0
LINE
  5
21E
330
A
100
AcDbEntity
  8
TFR-TRI
  6
CONTINUOUS
 62
   215
100
AcDbLine
 10
34.41528701782226
 20
11.06234264373779
 30
0.0
 11
34.41528701782226
 21
11.10055828094482
 31
0.0
  0
LINE
  5
21F
330
A
100
AcDbEntity
  8
TFR-TRI
  6
CONTINUOUS
 62
   215
100
AcDbLine
 10
34.53858566284179
 20
17.78949546813964
 30
0.0
 11
34.53858566284179
 21
17.74072456359863
 31
0.0
  0
LINE
  5
220
330
A
100
AcDbEntity
  8
TFR-TRI
  6
CONTINUOUS
 62
   215
100
AcDbLine
 10
24.90113067626953
 20
7.490723609924316
 30
0.0
 11
26.27613067626953
 21
7.490723609924316
 31
0.0
  0
LINE
  5
221
330
A
100
AcDbEntity
  8
TFR-TRI
  6
CONTINUOUS
 62
   215
100
AcDbLine
 10
26.65113067626953
 20
8.360723495483398
 30
0.0
 11
26.65113067626953
 21
7.865723609924316
 31
0.0
  0
LINE
  5
222
330
A
100
AcDbEntity
  8
TFR-TRI
  6
CONTINUOUS
 62
   215
100
AcDbLine
 10
34.2303352355957
 20
24.61322402954101
 30
0.0
 11
34.2303352355957
 21
23.92572402954101
 31
0.0
  0
LINE
  5
223
330
A
100
AcDbEntity
  8
TFR-TRI
  6
CONTINUOUS
 62
   215
100
AcDbLine
 10
24.65113067626953
 20
5.738223552703857
 30
0.0
 11
24.65113067626953
 21
7.240723609924316
 31
0.0
  0
LINE
  5
224
330
A
100
AcDbEntity
  8
TFR-TRI
  6
CONTINUOUS
 62
   215
100
AcDbLine
 10
23.25831794738769
 20
5.488223552703857
 30
0.0
 11
23.25368118286132
 21
5.488223552703857
 31
0.0
  0
LINE
  5
225
330
A
100
AcDbEntity
  8
TFR-TRI
  6
CONTINUOUS
 62
   215
100
AcDbLine
 10
34.53858566284179
 20
7.600558757781982
 30
0.0
 11
34.53858566284179
 21
7.562342643737792
 31
0.0
  0
LINE
  5
226
330
A
100
AcDbEntity
  8
TFR-TRI
  6
CONTINUOUS
 62
   215
100
AcDbLine
 10
24.90113067626953
 20
21.49072456359863
 30
0.0
 11
26.27613067626953
 21
21.49072456359863
 31
0.0
  0
LINE
  5
227
330
A
100
AcDbEntity
  8
TFR-TRI
  6
CONTINUOUS
 62
   215
100
AcDbLine
 10
34.53858566284179
 20
10.91750049591064
 30
0.0
 11
34.53858566284179
 21
10.87961673736572
 31
0.0
  0
LINE
  5
228
330
A
100
AcDbEntity
  8
TFR-TRI
  6
CONTINUOUS
 62
   215
100
AcDbLine
 10
34.53858566284179
 20
19.19485092163085
 30
0.0
 11
34.53858566284179
 21
19.16410446166992
 31
0.0
  0
LINE
  5
229
330
A
100
AcDbEntity
  8
TFR-TRI
  6
CONTINUOUS
 62
   215
100
AcDbLine
 10
34.41528701782226
 20
8.360723495483398
 30
0.0
 11
34.41528701782226
 21
8.419386863708496
 31
0.0
  0
LINE
  5
22A
330
A
100
AcDbEntity
  8
TFR-TRI
  6
CONTINUOUS
 62
   215
100
AcDbLine
 10
34.53858566284179
 20
12.39005279541015
 30
0.0
 11
34.53858566284179
 21
12.3468313217163
 31
0.0
  0
LINE
  5
22B
330
A
100
AcDbEntity
  8
TFR-TRI
  6
CONTINUOUS
 62
   215
100
AcDbLine
 10
34.41528701782226
 20
18.8607234954834
 30
0.0
 11
34.41528701782226
 21
18.91938591003418
 31
0.0
  0
LINE
  5
22C
330
A
100
AcDbEntity
  8
TFR-TRI
  6
CONTINUOUS
 62
   215
100
AcDbLine
 10
34.41528701782226
 20
5.599331378936767
 30
0.0
 11
34.41528701782226
 21
5.642552852630615
 31
0.0
  0
LINE
  5
22D
330
A
100
AcDbEntity
  8
TFR-TRI
  6
CONTINUOUS
 62
   215
100
AcDbLine
 10
34.41528701782226
 20
8.731106758117675
 30
0.0
 11
34.41528701782226
 21
8.735723495483398
 31
0.0
  0
LINE
  5
22E
330
A
100
AcDbEntity
  8
TFR-TRI
  6
CONTINUOUS
 62
   215
100
AcDbLine
 10
23.43863105773925
 20
23.92572402954101
 30
0.0
 11
23.43863105773925
 21
24.61322402954101
 31
0.0
  0
LINE
  5
22F
330
A
100
AcDbEntity
  8
TFR-TRI
  6
CONTINUOUS
 62
   215
100
AcDbLine
 10
34.41528701782226
 20
7.600558757781982
 30
0.0
 11
34.41528701782226
 21
7.645304203033447
 31
0.0
  0
LINE
  5
230
330
A
100
AcDbEntity
  8
TFR-TRI
  6
CONTINUOUS
 62
   215
100
AcDbLine
 10
34.53858566284179
 20
12.24052715301513
 30
0.0
 11
34.53858566284179
 21
12.23572349548339
 31
0.0
  0
LINE
  5
231
330
A
100
AcDbEntity
  8
TFR-TRI
  6
CONTINUOUS
 62
   215
100
AcDbLine
 10
23.43863105773925
 20
5.488223552703857
 30
0.0
 11
23.43863105773925
 21
6.175723552703857
 31
0.0
  0
LINE
  5
232
330
A
100
AcDbEntity
  8
TFR-TRI
  6
CONTINUOUS
 62
   215
100
AcDbLine
 10
23.25831794738769
 20
23.92572402954101
 30
0.0
 11
23.27199554443359
 21
23.92572402954101
 31
0.0
  0
LINE
  5
233
330
A
100
AcDbEntity
  8
TFR-TRI
  6
CONTINUOUS
 62
   215
100
AcDbLine
 10
23.29403114318847
 20
23.92572402954101
 30
0.0
 11
23.32331657409667
 21
23.92572402954101
 31
0.0
  0
LINE
  5
234
330
A
100
AcDbEntity
  8
TFR-TRI
  6
CONTINUOUS
 62
   215
100
AcDbLine
 10
23.35838317871093
 20
23.92572402954101
 30
0.0
 11
23.39747619628906
 21
23.92572402954101
 31
0.0
  0
LINE
  5
235
330
A
100
AcDbEntity
  8
TFR-TRI
  6
CONTINUOUS
 62
   215
100
AcDbLine
 10
34.53858566284179
 20
22.75475311279297
 30
0.0
 11
34.53858566284179
 21
22.74052810668945
 31
0.0
  0
LINE
  5
236
330
A
100
AcDbEntity
  8
TFR-TRI
  6
CONTINUOUS
 62
   215
100
AcDbLine
 10
23.29403114318847
 20
24.61322402954101
 30
0.0
 11
23.27199554443359
 21
24.61322402954101
 31
0.0
  0
LINE
  5
237
330
A
100
AcDbEntity
  8
TFR-TRI
  6
CONTINUOUS
 62
   215
100
AcDbLine
 10
23.25831794738769
 20
24.61322402954101
 30
0.0
 11
23.25368118286132
 21
24.61322402954101
 31
0.0
  0
LINE
  5
238
330
A
100
AcDbEntity
  8
TFR-TRI
  6
CONTINUOUS
 62
   215
100
AcDbLine
 10
34.53858566284179
 20
8.985723495483398
 30
0.0
 11
34.41528701782226
 21
8.985723495483398
 31
0.0
  0
LINE
  5
239
330
A
100
AcDbEntity
  8
TFR-TRI
  6
CONTINUOUS
 62
   215
100
AcDbLine
 10
23.13038063049316
 20
24.45889472961425
 30
0.0
 11
23.13038063049316
 21
24.50211715698242
 31
0.0
  0
LINE
  5
23A
330
A
100
AcDbEntity
  8
TFR-TRI
  6
CONTINUOUS
 62
   215
100
AcDbLine
 10
34.53858566284179
 20
10.87961673736572
 30
0.0
 11
34.53858566284179
 21
10.83639430999755
 31
0.0
  0
LINE
  5
23B
330
A
100
AcDbEntity
  8
TFR-TRI
  6
CONTINUOUS
 62
   215
100
AcDbLine
 10
23.13038063049316
 20
24.54000091552734
 30
0.0
 11
23.13038063049316
 21
24.57109069824218
 31
0.0
  0
LINE
  5
23C
330
A
100
AcDbEntity
  8
TFR-TRI
  6
CONTINUOUS
 62
   215
100
AcDbLine
 10
23.13038063049316
 20
23.92572402954101
 30
0.0
 11
23.13038063049316
 21
23.93052673339843
 31
0.0
  0
LINE
  5
23D
330
A
100
AcDbEntity
  8
TFR-TRI
  6
CONTINUOUS
 62
   215
100
AcDbLine
 10
23.13038063049316
 20
23.94475364685058
 30
0.0
 11
23.13038063049316
 21
23.96785545349121
 31
0.0
  0
LINE
  5
23E
330
A
100
AcDbEntity
  8
TFR-TRI
  6
CONTINUOUS
 62
   215
100
AcDbLine
 10
23.13038063049316
 20
23.99894714355468
 30
0.0
 11
23.13038063049316
 21
24.03683090209961
 31
0.0
  0
LINE
  5
23F
330
A
100
AcDbEntity
  8
TFR-TRI
  6
CONTINUOUS
 62
   215
100
AcDbLine
 10
26.63277626037597
 20
30.77141761779785
 30
0.0
 11
26.61025810241699
 21
30.77141761779785
 31
0.0
  0
LINE
  5
240
330
A
100
AcDbEntity
  8
TFR-TRI
  6
CONTINUOUS
 62
   215
100
AcDbLine
 10
23.25368118286132
 20
24.59419441223144
 30
0.0
 11
23.25368118286132
 21
24.57109069824218
 31
0.0
  0
LINE
  5
241
330
A
100
AcDbEntity
  8
TFR-TRI
  6
CONTINUOUS
 62
   215
100
AcDbLine
 10
23.25368118286132
 20
24.54000091552734
 30
0.0
 11
23.25368118286132
 21
24.50211715698242
 31
0.0
  0
LINE
  5
242
330
A
100
AcDbEntity
  8
TFR-TRI
  6
CONTINUOUS
 62
   215
100
AcDbLine
 10
23.25368118286132
 20
24.45889472961425
 30
0.0
 11
23.25368118286132
 21
24.41199684143066
 31
0.0
  0
LINE
  5
243
330
A
100
AcDbEntity
  8
TFR-TRI
  6
CONTINUOUS
 62
   215
100
AcDbLine
 10
23.25368118286132
 20
24.36322402954101
 30
0.0
 11
23.25368118286132
 21
24.17572402954101
 31
0.0
  0
LINE
  5
244
330
A
100
AcDbEntity
  8
TFR-TRI
  6
CONTINUOUS
 62
   215
100
AcDbLine
 10
23.25368118286132
 20
24.12695121765136
 30
0.0
 11
23.25368118286132
 21
24.08005332946777
 31
0.0
  0
LINE
  5
245
330
A
100
AcDbEntity
  8
TFR-TRI
  6
CONTINUOUS
 62
   215
100
AcDbLine
 10
34.41528701782226
 20
8.71737003326416
 30
0.0
 11
34.41528701782226
 21
8.731106758117675
 31
0.0
  0
LINE
  5
246
330
A
100
AcDbEntity
  8
TFR-TRI
  6
CONTINUOUS
 62
   215
100
AcDbLine
 10
24.40113067626953
 20
30.77141761779785
 30
0.0
 11
24.40113067626953
 21
30.89471626281738
 31
0.0
  0
LINE
  5
247
330
A
100
AcDbEntity
  8
TFR-TRI
  6
CONTINUOUS
 62
   215
100
AcDbLine
 10
23.25368118286132
 20
23.96785545349121
 30
0.0
 11
23.25368118286132
 21
23.94475364685058
 31
0.0
  0
LINE
  5
248
330
A
100
AcDbEntity
  8
TFR-TRI
  6
CONTINUOUS
 62
   215
100
AcDbLine
 10
26.65113067626953
 20
30.89471626281738
 30
0.0
 11
26.65113067626953
 21
30.77141761779785
 31
0.0
  0
LINE
  5
249
330
A
100
AcDbEntity
  8
TFR-TRI
  6
CONTINUOUS
 62
   215
100
AcDbLine
 10
34.41528701782226
 20
8.754754066467285
 30
0.0
 11
34.41528701782226
 21
8.777856826782226
 31
0.0
  0
LINE
  5
24A
330
A
100
AcDbEntity
  8
TFR-TRI
  6
CONTINUOUS
 62
   215
100
AcDbLine
 10
34.53858566284179
 20
11.91938686370849
 30
0.0
 11
34.53858566284179
 21
11.86072349548339
 31
0.0
  0
LINE
  5
24B
330
A
100
AcDbEntity
  8
TFR-TRI
  6
CONTINUOUS
 62
   215
100
AcDbLine
 10
23.13038063049316
 20
24.17572402954101
 30
0.0
 11
23.25368118286132
 21
24.17572402954101
 31
0.0
  0
LINE
  5
24C
330
A
100
AcDbEntity
  8
TFR-TRI
  6
CONTINUOUS
 62
   215
100
AcDbLine
 10
23.13038063049316
 20
28.19696998596191
 30
0.0
 11
23.13038063049316
 21
28.21119689941406
 31
0.0
  0
LINE
  5
24D
330
A
100
AcDbEntity
  8
TFR-TRI
  6
CONTINUOUS
 62
   215
100
AcDbLine
 10
23.13038063049316
 20
28.23429870605469
 30
0.0
 11
23.13038063049316
 21
28.26539039611816
 31
0.0
  0
LINE
  5
24E
330
A
100
AcDbEntity
  8
TFR-TRI
  6
CONTINUOUS
 62
   215
100
AcDbLine
 10
34.53858566284179
 20
19.43695068359375
 30
0.0
 11
34.53858566284179
 21
19.39005279541015
 31
0.0
  0
LINE
  5
24F
330
A
100
AcDbEntity
  8
TFR-TRI
  6
CONTINUOUS
 62
   215
100
AcDbLine
 10
23.32331657409667
 20
5.488223552703857
 30
0.0
 11
23.29403114318847
 21
5.488223552703857
 31
0.0
  0
LINE
  5
250
330
A
100
AcDbEntity
  8
TFR-TRI
  6
CONTINUOUS
 62
   215
100
AcDbLine
 10
23.27199554443359
 20
5.488223552703857
 30
0.0
 11
23.25831794738769
 21
5.488223552703857
 31
0.0
  0
LINE
  5
251
330
A
100
AcDbEntity
  8
TFR-TRI
  6
CONTINUOUS
 62
   215
100
AcDbLine
 10
34.53858566284179
 20
7.471693515777587
 30
0.0
 11
34.53858566284179
 21
7.448591232299804
 31
0.0
  0
LINE
  5
252
330
A
100
AcDbEntity
  8
TFR-TRI
  6
CONTINUOUS
 62
   215
100
AcDbLine
 10
23.43863105773925
 20
6.175723552703857
 30
0.0
 11
23.39747619628906
 21
6.175723552703857
 31
0.0
  0
LINE
  5
253
330
A
100
AcDbEntity
  8
TFR-TRI
  6
CONTINUOUS
 62
   215
100
AcDbLine
 10
34.53858566284179
 20
11.10055828094482
 30
0.0
 11
34.53858566284179
 21
11.06234264373779
 31
0.0
  0
LINE
  5
254
330
A
100
AcDbEntity
  8
TFR-TRI
  6
CONTINUOUS
 62
   215
100
AcDbLine
 10
23.35838317871093
 20
6.175723552703857
 30
0.0
 11
23.32331657409667
 21
6.175723552703857
 31
0.0
  0
LINE
  5
255
330
A
100
AcDbEntity
  8
TFR-TRI
  6
CONTINUOUS
 62
   215
100
AcDbLine
 10
23.29403114318847
 20
6.175723552703857
 30
0.0
 11
23.27199554443359
 21
6.175723552703857
 31
0.0
  0
LINE
  5
256
330
A
100
AcDbEntity
  8
TFR-TRI
  6
CONTINUOUS
 62
   215
100
AcDbLine
 10
24.7243537902832
 20
30.77141761779785
 30
0.0
 11
24.69326400756836
 21
30.77141761779785
 31
0.0
  0
LINE
  5
257
330
A
100
AcDbEntity
  8
TFR-TRI
  6
CONTINUOUS
 62
   215
100
AcDbLine
 10
34.41528701782226
 20
24.57109069824218
 30
0.0
 11
34.41528701782226
 21
24.59419441223144
 31
0.0
  0
LINE
  5
258
330
A
100
AcDbEntity
  8
TFR-TRI
  6
CONTINUOUS
 62
   215
100
AcDbLine
 10
24.57790756225586
 20
30.89471626281738
 30
0.0
 11
24.6089973449707
 21
30.89471626281738
 31
0.0
  0
LINE
  5
259
330
A
100
AcDbEntity
  8
TFR-TRI
  6
CONTINUOUS
 62
   215
100
AcDbLine
 10
34.41528701782226
 20
24.60841941833496
 30
0.0
 11
34.41528701782226
 21
24.61322402954101
 31
0.0
  0
LINE
  5
25A
330
A
100
AcDbEntity
  8
TFR-TRI
  6
CONTINUOUS
 62
   215
100
AcDbLine
 10
34.41528701782226
 20
24.61322402954101
 30
0.0
 11
34.53858566284179
 21
24.61322402954101
 31
0.0
  0
LINE
  5
25B
330
A
100
AcDbEntity
  8
TFR-TRI
  6
CONTINUOUS
 62
   215
100
AcDbLine
 10
34.53858566284179
 20
5.738223552703857
 30
0.0
 11
34.53858566284179
 21
5.689451217651367
 31
0.0
  0
LINE
  5
25C
330
A
100
AcDbEntity
  8
TFR-TRI
  6
CONTINUOUS
 62
   215
100
AcDbLine
 10
34.53858566284179
 20
5.642552852630615
 30
0.0
 11
34.53858566284179
 21
5.599331378936767
 31
0.0
  0
LINE
  5
25D
330
A
100
AcDbEntity
  8
TFR-TRI
  6
CONTINUOUS
 62
   215
100
AcDbLine
 10
34.41528701782226
 20
22.69485092163086
 30
0.0
 11
34.41528701782226
 21
22.71736907958984
 31
0.0
  0
LINE
  5
25E
330
A
100
AcDbEntity
  8
TFR-TRI
  6
CONTINUOUS
 62
   215
100
AcDbLine
 10
34.53858566284179
 20
5.561447143554687
 30
0.0
 11
34.53858566284179
 21
5.530356407165527
 31
0.0
  0
LINE
  5
25F
330
A
100
AcDbEntity
  8
TFR-TRI
  6
CONTINUOUS
 62
   215
100
AcDbLine
 10
34.53858566284179
 20
5.507254123687744
 30
0.0
 11
34.53858566284179
 21
5.493027687072753
 31
0.0
  0
LINE
  5
260
330
A
100
AcDbEntity
  8
TFR-TRI
  6
CONTINUOUS
 62
   215
100
AcDbLine
 10
34.53858566284179
 20
24.61322402954101
 30
0.0
 11
34.53858566284179
 21
24.60841941833496
 31
0.0
  0
LINE
  5
261
330
A
100
AcDbEntity
  8
TFR-TRI
  6
CONTINUOUS
 62
   215
100
AcDbLine
 10
34.53858566284179
 20
21.86572456359863
 30
0.0
 11
34.41528701782226
 21
21.86572456359863
 31
0.0
  0
LINE
  5
262
330
A
100
AcDbEntity
  8
TFR-TRI
  6
CONTINUOUS
 62
   215
100
AcDbLine
 10
34.53858566284179
 20
24.59419441223144
 30
0.0
 11
34.53858566284179
 21
24.57109069824218
 31
0.0
  0
LINE
  5
263
330
A
100
AcDbEntity
  8
TFR-TRI
  6
CONTINUOUS
 62
   215
100
AcDbLine
 10
34.53858566284179
 20
7.865723609924316
 30
0.0
 11
34.53858566284179
 21
8.360723495483398
 31
0.0
  0
LINE
  5
264
330
A
100
AcDbEntity
  8
TFR-TRI
  6
CONTINUOUS
 62
   215
100
AcDbLine
 10
23.43863105773925
 20
5.488223552703857
 30
0.0
 11
23.39747619628906
 21
5.488223552703857
 31
0.0
  0
LINE
  5
265
330
A
100
AcDbEntity
  8
TFR-TRI
  6
CONTINUOUS
 62
   215
100
AcDbLine
 10
24.6089973449707
 20
30.89471626281738
 30
0.0
 11
24.63210105895996
 21
30.89471626281738
 31
0.0
  0
LINE
  5
266
330
A
100
AcDbEntity
  8
TFR-TRI
  6
CONTINUOUS
 62
   215
100
AcDbLine
 10
34.37493515014648
 20
23.92572402954101
 30
0.0
 11
34.39697265625
 21
23.92572402954101
 31
0.0
  0
LINE
  5
267
330
A
100
AcDbEntity
  8
TFR-TRI
  6
CONTINUOUS
 62
   215
100
AcDbLine
 10
24.64632606506347
 20
30.89471626281738
 30
0.0
 11
24.65113067626953
 21
30.89471626281738
 31
0.0
  0
LINE
  5
268
330
A
100
AcDbEntity
  8
TFR-TRI
  6
CONTINUOUS
 62
   215
100
AcDbLine
 10
34.41528701782226
 20
17.97169303894043
 30
0.0
 11
34.41528701782226
 21
17.98591995239257
 31
0.0
  0
LINE
  5
269
330
A
100
AcDbEntity
  8
TFR-TRI
  6
CONTINUOUS
 62
   215
100
AcDbLine
 10
24.76223754882812
 20
30.89471626281738
 30
0.0
 11
24.80545997619628
 21
30.89471626281738
 31
0.0
  0
LINE
  5
26A
330
A
100
AcDbEntity
  8
TFR-TRI
  6
CONTINUOUS
 62
   215
100
AcDbLine
 10
34.53858566284179
 20
12.25475406646728
 30
0.0
 11
34.53858566284179
 21
12.24052715301513
 31
0.0
  0
LINE
  5
26B
330
A
100
AcDbEntity
  8
TFR-TRI
  6
CONTINUOUS
 62
   215
100
AcDbLine
 10
34.34564971923828
 20
24.61322402954101
 30
0.0
 11
34.31058502197265
 21
24.61322402954101
 31
0.0
  0
LINE
  5
26C
330
A
100
AcDbEntity
  8
TFR-TRI
  6
CONTINUOUS
 62
   215
100
AcDbLine
 10
34.41528701782226
 20
7.336394786834716
 30
0.0
 11
34.41528701782226
 21
7.379616260528564
 31
0.0
  0
LINE
  5
26D
330
A
100
AcDbEntity
  8
TFR-TRI
  6
CONTINUOUS
 62
   215
100
AcDbLine
 10
34.2303352355957
 20
23.92572402954101
 30
0.0
 11
32.0860366821289
 21
23.92572402954101
 31
0.0
  0
LINE
  5
26E
330
A
100
AcDbEntity
  8
TFR-TRI
  6
CONTINUOUS
 62
   215
100
AcDbLine
 10
34.53858566284179
 20
21.86572456359863
 30
0.0
 11
34.53858566284179
 21
21.80706024169921
 31
0.0
  0
LINE
  5
26F
330
A
100
AcDbEntity
  8
TFR-TRI
  6
CONTINUOUS
 62
   215
100
AcDbLine
 10
34.39697265625
 20
5.488223552703857
 30
0.0
 11
34.37493515014648
 21
5.488223552703857
 31
0.0
  0
LINE
  5
270
330
A
100
AcDbEntity
  8
TFR-TRI
  6
CONTINUOUS
 62
   215
100
AcDbLine
 10
34.53858566284179
 20
21.53159713745117
 30
0.0
 11
34.53858566284179
 21
21.50907707214355
 31
0.0
  0
LINE
  5
271
330
A
100
AcDbEntity
  8
TFR-TRI
  6
CONTINUOUS
 62
   215
100
AcDbLine
 10
34.41528701782226
 20
7.379616260528564
 30
0.0
 11
34.41528701782226
 21
7.417500495910644
 31
0.0
  0
LINE
  5
272
330
A
100
AcDbEntity
  8
TFR-TRI
  6
CONTINUOUS
 62
   215
100
AcDbLine
 10
34.53858566284179
 20
21.41749954223632
 30
0.0
 11
34.53858566284179
 21
21.3796157836914
 31
0.0
  0
LINE
  5
273
330
A
100
AcDbEntity
  8
TFR-TRI
  6
CONTINUOUS
 62
   215
100
AcDbLine
 10
34.41528701782226
 20
7.448591232299804
 30
0.0
 11
34.41528701782226
 21
7.471693515777587
 31
0.0
  0
LINE
  5
274
330
A
100
AcDbEntity
  8
TFR-TRI
  6
CONTINUOUS
 62
   215
100
AcDbLine
 10
34.41528701782226
 20
7.485919952392578
 30
0.0
 11
34.41528701782226
 21
7.490723609924316
 31
0.0
  0
LINE
  5
275
330
A
100
AcDbEntity
  8
TFR-TRI
  6
CONTINUOUS
 62
   215
100
AcDbLine
 10
34.41528701782226
 20
7.495340824127197
 30
0.0
 11
34.41528701782226
 21
7.509077548980712
 31
0.0
  0
LINE
  5
276
330
A
100
AcDbEntity
  8
TFR-TRI
  6
CONTINUOUS
 62
   215
100
AcDbLine
 10
23.43863105773925
 20
24.61322402954101
 30
0.0
 11
23.39747619628906
 21
24.61322402954101
 31
0.0
  0
LINE
  5
277
330
A
100
AcDbEntity
  8
TFR-TRI
  6
CONTINUOUS
 62
   215
100
AcDbLine
 10
32.0860366821289
 20
6.175723552703857
 30
0.0
 11
34.2303352355957
 21
6.175723552703857
 31
0.0
  0
LINE
  5
278
330
A
100
AcDbEntity
  8
TFR-TRI
  6
CONTINUOUS
 62
   215
100
AcDbLine
 10
34.53858566284179
 20
19.39005279541015
 30
0.0
 11
34.53858566284179
 21
19.34683036804199
 31
0.0
  0
LINE
  5
279
330
A
100
AcDbEntity
  8
TFR-TRI
  6
CONTINUOUS
 62
   215
100
AcDbLine
 10
34.53858566284179
 20
12.12588882446289
 30
0.0
 11
34.53858566284179
 21
12.08114337921142
 31
0.0
  0
LINE
  5
27A
330
A
100
AcDbEntity
  8
TFR-TRI
  6
CONTINUOUS
 62
   215
100
AcDbLine
 10
34.53858566284179
 20
18.97660446166992
 30
0.0
 11
34.53858566284179
 21
18.91938591003418
 31
0.0
  0
LINE
  5
27B
330
A
100
AcDbEntity
  8
TFR-TRI
  6
CONTINUOUS
 62
   215
100
AcDbLine
 10
34.53858566284179
 20
11.03159618377685
 30
0.0
 11
34.53858566284179
 21
11.00907802581787
 31
0.0
  0
LINE
  5
27C
330
A
100
AcDbEntity
  8
TFR-TRI
  6
CONTINUOUS
 62
   215
100
AcDbLine
 10
34.53858566284179
 20
10.99534034729003
 30
0.0
 11
34.53858566284179
 21
10.99072360992431
 31
0.0
  0
LINE
  5
27D
330
A
100
AcDbEntity
  8
TFR-TRI
  6
CONTINUOUS
 62
   215
100
AcDbLine
 10
23.13038063049316
 20
24.59419441223144
 30
0.0
 11
23.13038063049316
 21
24.60841941833496
 31
0.0
  0
LINE
  5
27E
330
A
100
AcDbEntity
  8
TFR-TRI
  6
CONTINUOUS
 62
   215
100
AcDbLine
 10
34.41528701782226
 20
8.740527153015136
 30
0.0
 11
34.41528701782226
 21
8.754754066467285
 31
0.0
  0
LINE
  5
27F
330
A
100
AcDbEntity
  8
TFR-TRI
  6
CONTINUOUS
 62
   215
100
AcDbLine
 10
24.85235786437988
 20
30.89471626281738
 30
0.0
 11
24.90113067626953
 21
30.89471626281738
 31
0.0
  0
LINE
  5
280
330
A
100
AcDbEntity
  8
TFR-TRI
  6
CONTINUOUS
 62
   215
100
AcDbLine
 10
34.41528701782226
 20
11.24984264373779
 30
0.0
 11
34.41528701782226
 21
11.30706119537353
 31
0.0
  0
LINE
  5
281
330
A
100
AcDbEntity
  8
TFR-TRI
  6
CONTINUOUS
 62
   215
100
AcDbLine
 10
34.53858566284179
 20
17.98591995239257
 30
0.0
 11
34.53858566284179
 21
17.97169303894043
 31
0.0
  0
LINE
  5
282
330
A
100
AcDbEntity
  8
TFR-TRI
  6
CONTINUOUS
 62
   215
100
AcDbLine
 10
34.53858566284179
 20
17.74072456359863
 30
0.0
 11
34.53858566284179
 21
12.48572349548339
 31
0.0
  0
LINE
  5
283
330
A
100
AcDbEntity
  8
TFR-TRI
  6
CONTINUOUS
 62
   215
100
AcDbLine
 10
23.25368118286132
 20
6.064616203308105
 30
0.0
 11
23.25368118286132
 21
6.021394729614257
 31
0.0
  0
LINE
  5
284
330
A
100
AcDbEntity
  8
TFR-TRI
  6
CONTINUOUS
 62
   215
100
AcDbLine
 10
23.25368118286132
 20
30.58646774291992
 30
0.0
 11
23.25368118286132
 21
28.44216728210449
 31
0.0
  0
LINE
  5
285
330
A
100
AcDbEntity
  8
TFR-TRI
  6
CONTINUOUS
 62
   215
100
AcDbLine
 10
23.25368118286132
 20
28.39339447021484
 30
0.0
 11
23.25368118286132
 21
28.34649658203125
 31
0.0
  0
LINE
  5
286
330
A
100
AcDbEntity
  8
TFR-TRI
  6
CONTINUOUS
 62
   215
100
AcDbLine
 10
23.25368118286132
 20
28.30327415466308
 30
0.0
 11
23.25368118286132
 21
28.26539039611816
 31
0.0
  0
LINE
  5
287
330
A
100
AcDbEntity
  8
TFR-TRI
  6
CONTINUOUS
 62
   215
100
AcDbLine
 10
23.25368118286132
 20
28.23429870605469
 30
0.0
 11
23.25368118286132
 21
28.21119689941406
 31
0.0
  0
LINE
  5
288
330
A
100
AcDbEntity
  8
TFR-TRI
  6
CONTINUOUS
 62
   215
100
AcDbLine
 10
23.25368118286132
 20
28.19696998596191
 30
0.0
 11
23.25368118286132
 21
28.19216728210449
 31
0.0
  0
LINE
  5
289
330
A
100
AcDbEntity
  8
TFR-TRI
  6
CONTINUOUS
 62
   215
100
AcDbLine
 10
26.27613067626953
 20
30.89471626281738
 30
0.0
 11
26.27613067626953
 21
30.77141761779785
 31
0.0
  0
LINE
  5
28A
330
A
100
AcDbEntity
  8
TFR-TRI
  6
CONTINUOUS
 62
   215
100
AcDbLine
 10
24.90113067626953
 20
30.89471626281738
 30
0.0
 11
24.90113067626953
 21
30.77141761779785
 31
0.0
  0
LINE
  5
28B
330
A
100
AcDbEntity
  8
TFR-TRI
  6
CONTINUOUS
 62
   215
100
AcDbLine
 10
26.40113067626953
 20
21.98822402954101
 30
0.0
 11
26.21363067626953
 21
21.98822402954101
 31
0.0
  0
LINE
  5
28C
330
A
100
AcDbEntity
  8
TFR-TRI
  6
CONTINUOUS
 62
   215
100
AcDbLine
 10
26.40113067626953
 20
7.988223552703857
 30
0.0
 11
26.21363067626953
 21
7.988223552703857
 31
0.0
  0
LINE
  5
28D
330
A
100
AcDbEntity
  8
TFR-TRI
  6
CONTINUOUS
 62
   215
100
AcDbLine
 10
26.21363067626953
 20
8.238224029541015
 30
0.0
 11
26.40113067626953
 21
8.238224029541015
 31
0.0
  0
LINE
  5
28E
330
A
100
AcDbEntity
  8
TFR-TRI
  6
CONTINUOUS
 62
   215
100
AcDbLine
 10
34.2303352355957
 20
24.61322402954101
 30
0.0
 11
32.0860366821289
 21
24.61322402954101
 31
0.0
  0
LINE
  5
28F
330
A
100
AcDbEntity
  8
TFR-TRI
  6
CONTINUOUS
 62
   215
100
AcDbLine
 10
26.21363067626953
 20
18.73822402954101
 30
0.0
 11
26.40113067626953
 21
18.73822402954101
 31
0.0
  0
LINE
  5
290
330
A
100
AcDbEntity
  8
TFR-TRI
  6
CONTINUOUS
 62
   215
100
AcDbLine
 10
26.40113067626953
 20
18.48822402954101
 30
0.0
 11
26.21363067626953
 21
18.48822402954101
 31
0.0
  0
LINE
  5
291
330
A
100
AcDbEntity
  8
TFR-TRI
  6
CONTINUOUS
 62
   215
100
AcDbLine
 10
23.25831794738769
 20
6.175723552703857
 30
0.0
 11
23.25368118286132
 21
6.175723552703857
 31
0.0
  0
LINE
  5
292
330
A
100
AcDbEntity
  8
TFR-TRI
  6
CONTINUOUS
 62
   215
100
AcDbLine
 10
23.13038063049316
 20
24.61322402954101
 30
0.0
 11
23.25368118286132
 21
24.61322402954101
 31
0.0
  0
LINE
  5
293
330
A
100
AcDbEntity
  8
TFR-TRI
  6
CONTINUOUS
 62
   215
100
AcDbLine
 10
23.13038063049316
 20
5.925723552703857
 30
0.0
 11
23.13038063049316
 21
5.974496364593505
 31
0.0
  0
LINE
  5
294
330
A
100
AcDbEntity
  8
TFR-TRI
  6
CONTINUOUS
 62
   215
100
AcDbLine
 10
23.13038063049316
 20
6.021394729614257
 30
0.0
 11
23.13038063049316
 21
6.064616203308105
 31
0.0
  0
LINE
  5
295
330
A
100
AcDbEntity
  8
TFR-TRI
  6
CONTINUOUS
 62
   215
100
AcDbLine
 10
23.13038063049316
 20
6.102500438690185
 30
0.0
 11
23.13038063049316
 21
6.133591175079345
 31
0.0
  0
LINE
  5
296
330
A
100
AcDbEntity
  8
TFR-TRI
  6
CONTINUOUS
 62
   215
100
AcDbLine
 10
23.39747619628906
 20
5.488223552703857
 30
0.0
 11
23.35838317871093
 21
5.488223552703857
 31
0.0
  0
LINE
  5
297
330
A
100
AcDbEntity
  8
TFR-TRI
  6
CONTINUOUS
 62
   215
100
AcDbLine
 10
23.35838317871093
 20
24.61322402954101
 30
0.0
 11
23.32331657409667
 21
24.61322402954101
 31
0.0
  0
CIRCLE
  5
298
330
A
100
AcDbEntity
  8
TFR-TRI
  6
CONTINUOUS
 62
   215
100
AcDbCircle
 10
32.0860366821289
 20
24.20572471618652
 30
0.0
 40
0.0885000005364418
  0
CIRCLE
  5
299
330
A
100
AcDbEntity
  8
TFR-TRI
  6
CONTINUOUS
 62
   215
100
AcDbCircle
 10
33.3360366821289
 20
5.895723819732666
 30
0.0
 40
0.0885000005364418
  0
ARC
  5
29A
330
A
100
AcDbEntity
  8
TFR-TRI
  6
CONTINUOUS
 62
   215
100
AcDbCircle
 10
24.90113067626953
 20
7.240723609924316
 30
0.0
 40
0.25
100
AcDbArc
 50
90.0
 51
180.0
  0
ARC
  5
29B
330
A
100
AcDbEntity
  8
TFR-TRI
  6
CONTINUOUS
 62
   215
100
AcDbCircle
 10
26.27613067626953
 20
7.865723609924316
 30
0.0
 40
0.375
100
AcDbArc
 50
270.0
 51
360.0
  0
ARC
  5
29C
330
A
100
AcDbEntity
  8
TFR-TRI
  6
CONTINUOUS
 62
   215
100
AcDbCircle
 10
32.0860366821289
 20
5.738223552703857
 30
0.0
 40
0.25
100
AcDbArc
 50
180.0
 51
270.0
  0
CIRCLE
  5
29D
330
A
100
AcDbEntity
  8
TFR-TRI
  6
CONTINUOUS
 62
   215
100
AcDbCircle
 10
33.3360366821289
 20
24.20572471618652
 30
0.0
 40
0.0885000005364418
  0
ARC
  5
29E
330
A
100
AcDbEntity
  8
TFR-TRI
  6
CONTINUOUS
 62
   215
100
AcDbCircle
 10
23.43863105773925
 20
30.58646774291992
 30
0.0
 40
0.3082500100135803
100
AcDbArc
 50
90.0
 51
180.0
  0
ARC
  5
29F
330
A
100
AcDbEntity
  8
TFR-TRI
  6
CONTINUOUS
 62
   215
100
AcDbCircle
 10
32.0860366821289
 20
5.925723552703857
 30
0.0
 40
0.25
100
AcDbArc
 50
90.0
 51
180.0
  0
ARC
  5
2A0
330
A
100
AcDbEntity
  8
TFR-TRI
  6
CONTINUOUS
 62
   215
100
AcDbCircle
 10
26.27613067626953
 20
11.36572360992431
 30
0.0
 40
0.375
100
AcDbArc
 50
270.0
 51
360.0
  0
ARC
  5
2A1
330
A
100
AcDbEntity
  8
TFR-TRI
  6
CONTINUOUS
 62
   215
100
AcDbCircle
 10
26.21363067626953
 20
22.11322402954101
 30
0.0
 40
0.125
100
AcDbArc
 50
90.0
 51
270.0
  0
ARC
  5
2A2
330
A
100
AcDbEntity
  8
TFR-TRI
  6
CONTINUOUS
 62
   215
100
AcDbCircle
 10
26.40113067626953
 20
22.11322402954101
 30
0.0
 40
0.125
100
AcDbArc
 50
270.0
 51
450.0
  0
ARC
  5
2A3
330
A
100
AcDbEntity
  8
TFR-TRI
  6
CONTINUOUS
 62
   215
100
AcDbCircle
 10
26.40113067626953
 20
8.113224029541015
 30
0.0
 40
0.125
100
AcDbArc
 50
270.0
 51
450.0
  0
ARC
  5
2A4
330
A
100
AcDbEntity
  8
TFR-TRI
  6
CONTINUOUS
 62
   215
100
AcDbCircle
 10
26.21363067626953
 20
8.113224029541015
 30
0.0
 40
0.125
100
AcDbArc
 50
90.0
 51
270.0
  0
ARC
  5
2A5
330
A
100
AcDbEntity
  8
TFR-TRI
  6
CONTINUOUS
 62
   215
100
AcDbCircle
 10
26.21363067626953
 20
18.61322402954101
 30
0.0
 40
0.125
100
AcDbArc
 50
90.0
 51
270.0
  0
ARC
  5
2A6
330
A
100
AcDbEntity
  8
TFR-TRI
  6
CONTINUOUS
 62
   215
100
AcDbCircle
 10
26.40113067626953
 20
18.61322402954101
 30
0.0
 40
0.125
100
AcDbArc
 50
270.0
 51
450.0
  0
ARC
  5
2A7
330
A
100
AcDbEntity
  8
TFR-TRI
  6
CONTINUOUS
 62
   215
100
AcDbCircle
 10
32.0860366821289
 20
24.36322402954101
 30
0.0
 40
0.25
100
AcDbArc
 50
90.0
 51
180.0
  0
CIRCLE
  5
2A8
330
A
100
AcDbEntity
  8
TFR-TRI
  6
CONTINUOUS
 62
   215
100
AcDbCircle
 10
33.9610366821289
 20
24.20572471618652
 30
0.0
 40
0.0885000005364418
  0
CIRCLE
  5
2A9
330
A
100
AcDbEntity
  8
TFR-TRI
  6
CONTINUOUS
 62
   215
100
AcDbCircle
 10
33.9610366821289
 20
5.895723819732666
 30
0.0
 40
0.0885000005364418
  0
ARC
  5
2AA
330
A
100
AcDbEntity
  8
TFR-TRI
  6
CONTINUOUS
 62
   215
100
AcDbCircle
 10
24.90113067626953
 20
12.48572349548339
 30
0.0
 40
0.25
100
AcDbArc
 50
180.0
 51
270.0
  0
ARC
  5
2AB
330
A
100
AcDbEntity
  8
TFR-TRI
  6
CONTINUOUS
 62
   215
100
AcDbCircle
 10
32.0860366821289
 20
24.17572402954101
 30
0.0
 40
0.25
100
AcDbArc
 50
180.0
 51
270.0
  0
CIRCLE
  5
2AC
330
A
100
AcDbEntity
  8
TFR-TRI
  6
CONTINUOUS
 62
   215
100
AcDbCircle
 10
32.7110366821289
 20
5.895723819732666
 30
0.0
 40
0.0885000005364418
  0
CIRCLE
  5
2AD
330
A
100
AcDbEntity
  8
TFR-TRI
  6
CONTINUOUS
 62
   215
100
AcDbCircle
 10
32.7110366821289
 20
24.20572471618652
 30
0.0
 40
0.0885000005364418
  0
ARC
  5
2AE
330
A
100
AcDbEntity
  8
TFR-TRI
  6
CONTINUOUS
 62
   215
100
AcDbCircle
 10
24.90113067626953
 20
22.9857234954834
 30
0.0
 40
0.25
100
AcDbArc
 50
180.0
 51
270.0
  0
ARC
  5
2AF
330
A
100
AcDbEntity
  8
TFR-TRI
  6
CONTINUOUS
 62
   215
100
AcDbCircle
 10
24.40113067626953
 20
24.36322402954101
 30
0.0
 40
0.25
100
AcDbArc
 50
0.0
 51
90.0
  0
ARC
  5
2B0
330
A
100
AcDbEntity
  8
TFR-TRI
  6
CONTINUOUS
 62
   215
100
AcDbCircle
 10
23.44288063049316
 20
23.86322402954101
 30
0.0
 40
0.0625
100
AcDbArc
 50
0.0
 51
90.0
  0
ARC
  5
2B1
330
A
100
AcDbEntity
  8
TFR-TRI
  6
CONTINUOUS
 62
   215
100
AcDbCircle
 10
23.44288063049316
 20
6.238223552703857
 30
0.0
 40
0.0625
100
AcDbArc
 50
270.0
 51
360.0
  0
ARC
  5
2B2
330
A
100
AcDbEntity
  8
TFR-TRI
  6
CONTINUOUS
 62
   215
100
AcDbCircle
 10
23.43863105773925
 20
30.58646774291992
 30
0.0
 40
0.1849499940872192
100
AcDbArc
 50
90.0
 51
180.0
  0
ARC
  5
2B3
330
A
100
AcDbEntity
  8
TFR-TRI
  6
CONTINUOUS
 62
   215
100
AcDbCircle
 10
26.27613067626953
 20
21.86572456359863
 30
0.0
 40
0.375
100
AcDbArc
 50
270.0
 51
360.0
  0
ARC
  5
2B4
330
A
100
AcDbEntity
  8
TFR-TRI
  6
CONTINUOUS
 62
   215
100
AcDbCircle
 10
26.27613067626953
 20
22.3607234954834
 30
0.0
 40
0.375
100
AcDbArc
 50
0.0
 51
90.0
  0
ARC
  5
2B5
330
A
100
AcDbEntity
  8
TFR-TRI
  6
CONTINUOUS
 62
   215
100
AcDbCircle
 10
26.27613067626953
 20
8.360723495483398
 30
0.0
 40
0.375
100
AcDbArc
 50
0.0
 51
90.0
  0
ARC
  5
2B6
330
A
100
AcDbEntity
  8
TFR-TRI
  6
CONTINUOUS
 62
   215
100
AcDbCircle
 10
24.90113067626953
 20
8.985723495483398
 30
0.0
 40
0.25
100
AcDbArc
 50
180.0
 51
270.0
  0
ARC
  5
2B7
330
A
100
AcDbEntity
  8
TFR-TRI
  6
CONTINUOUS
 62
   215
100
AcDbCircle
 10
24.90113067626953
 20
10.74072360992431
 30
0.0
 40
0.25
100
AcDbArc
 50
90.0
 51
180.0
  0
ARC
  5
2B8
330
A
100
AcDbEntity
  8
TFR-TRI
  6
CONTINUOUS
 62
   215
100
AcDbCircle
 10
26.27613067626953
 20
11.86072349548339
 30
0.0
 40
0.375
100
AcDbArc
 50
0.0
 51
90.0
  0
ARC
  5
2B9
330
A
100
AcDbEntity
  8
TFR-TRI
  6
CONTINUOUS
 62
   215
100
AcDbCircle
 10
24.90113067626953
 20
17.74072456359863
 30
0.0
 40
0.25
100
AcDbArc
 50
90.0
 51
180.0
  0
ARC
  5
2BA
330
A
100
AcDbEntity
  8
TFR-TRI
  6
CONTINUOUS
 62
   215
100
AcDbCircle
 10
26.27613067626953
 20
18.36572456359863
 30
0.0
 40
0.375
100
AcDbArc
 50
270.0
 51
360.0
  0
ARC
  5
2BB
330
A
100
AcDbEntity
  8
TFR-TRI
  6
CONTINUOUS
 62
   215
100
AcDbCircle
 10
26.27613067626953
 20
18.8607234954834
 30
0.0
 40
0.375
100
AcDbArc
 50
0.0
 51
90.0
  0
ARC
  5
2BC
330
A
100
AcDbEntity
  8
TFR-TRI
  6
CONTINUOUS
 62
   215
100
AcDbCircle
 10
24.90113067626953
 20
19.4857234954834
 30
0.0
 40
0.25
100
AcDbArc
 50
180.0
 51
270.0
  0
ARC
  5
2BD
330
A
100
AcDbEntity
  8
TFR-TRI
  6
CONTINUOUS
 62
   215
100
AcDbCircle
 10
24.90113067626953
 20
21.24072456359863
 30
0.0
 40
0.25
100
AcDbArc
 50
90.0
 51
180.0
  0
CIRCLE
  5
2BE
330
A
100
AcDbEntity
  8
TFR-TRI
  6
CONTINUOUS
 62
   215
100
AcDbCircle
 10
32.0860366821289
 20
5.895723819732666
 30
0.0
 40
0.0885000005364418
  0
ARC
  5
2BF
330
A
100
AcDbEntity
  8
TFR-TRI
  6
CONTINUOUS
 62
   215
100
AcDbCircle
 10
26.40113067626953
 20
11.61322402954101
 30
0.0
 40
0.125
100
AcDbArc
 50
270.0
 51
450.0
  0
ARC
  5
2C0
330
A
100
AcDbEntity
  8
TFR-TRI
  6
CONTINUOUS
 62
   215
100
AcDbCircle
 10
26.21363067626953
 20
11.61322402954101
 30
0.0
 40
0.125
100
AcDbArc
 50
90.0
 51
270.0
  0
ARC
  5
2C1
330
A
100
AcDbEntity
  8
TFR-TRI
  6
CONTINUOUS
 62
   215
100
AcDbCircle
 10
24.40113067626953
 20
5.738223552703857
 30
0.0
 40
0.25
100
AcDbArc
 50
270.0
 51
360.0
  0
VIEWPORT
  5
2DF
330
B
100
AcDbEntity
 67
     1
  8
0
  6
CONTINUOUS
100
AcDbViewport
 10
3.76086956521739
 20
2.25
 30
0.0
 40
8.521739130434781
 41
5.5
 68
     1
 69
     1
1001
ACAD
1000
MVIEW
1002
{
1070
    16
1010
0.0
1020
0.0
1030
0.0
1010
0.0
1020
0.0
1030
1.0
1040
0.0
1040
5.5
1040
3.760869565217391
1040
2.25
1040
50.0
1040
0.0
1040
0.0
1070
     0
1070
   100
1070
     1
1070
     1
1070
     0
1070
     0
1070
     0
1070
     0
1040
0.0
1040
0.0
1040
0.0
1040
1.0
1040
1.0
1040
0.0
1040
0.0
1070
     0
1002
{
1002
}
1002
}
  0
ENDSEC
  0
SECTION
  2
OBJECTS
  0
DICTIONARY
  5
19
330
0
100
AcDbDictionary
  3
ACAD_GROUP
350
1A
  3
ACAD_LAYOUT
350
1E
  3
ACAD_MLINESTYLE
350
1B
  3
ACAD_PLOTSETTINGS
350
22
  3
ACAD_PLOTSTYLENAME
350
1F
  3
ACAD_WIPEOUT_VARS
350
23
  3
ACDBHEADERROUNDTRIPXREC
350
38C
  0
DICTIONARY
  5
3AD
330
A
100
AcDbDictionary
280
     1
  3
ACAD_LAYOUTSELFREF
360
3AE
  0
DICTIONARY
  5
3AF
330
B
100
AcDbDictionary
280
     1
  3
ACAD_LAYOUTSELFREF
360
3B0
  0
DICTIONARY
  5
1A
102
{ACAD_REACTORS
330
19
102
}
330
19
100
AcDbDictionary
  0
DICTIONARY
  5
1E
102
{ACAD_REACTORS
330
19
102
}
330
19
100
AcDbDictionary
  0
DICTIONARY
  5
1B
102
{ACAD_REACTORS
330
19
102
}
330
19
100
AcDbDictionary
  3
STANDARD
350
1C
  0
DICTIONARY
  5
22
102
{ACAD_REACTORS
330
19
102
}
330
19
100
AcDbDictionary
  0
ACDBDICTIONARYWDFLT
  5
1F
102
{ACAD_REACTORS
330
19
102
}
330
19
100
AcDbDictionary
281
     1
  3
Normal
350
1D
100
AcDbDictionaryWithDefault
340
1D
  0
ACAD_PROXY_OBJECT
  5
23
330
19
100
AcDbProxyObject
 90
      499
 91
      524
 93
       10
310
4041
 94
        0
1001
ACAD
1000
AcadProxyRoundTripData
1071
      521
1071
   655383
1070
     0
  0
DICTIONARY
  5
38C
102
{ACAD_REACTORS
330
19
102
}
330
19
100
AcDbDictionary
  3
CEPSNTYPE
350
396
  3
DIMSTYLEDATA
350
39A
  3
FINGERPRINTGUID
350
397
  3
HYPERLINKBASE
350
38F
  3
INSUNITS
350
395
  3
LAYOUTDICT
350
391
  3
LWETCUNION
350
394
  3
PLOTSETDICT
350
392
  3
PLOTSTYLNAMDICT
350
393
  3
PSVPSCALE
350
399
  3
PUCSBASE
350
39D
  3
PUCSORGBACK
350
3A3
  3
PUCSORGBOTTOM
350
39F
  3
PUCSORGFRONT
350
3A2
  3
PUCSORGLEFT
350
3A0
  3
PUCSORGRIGHT
350
3A1
  3
PUCSORGTOP
350
39E
  3
PUCSORTHOREF
350
39B
  3
PUCSORTHOVIEW
350
39C
  3
STYLESHEET
350
390
  3
TSTACKALIGN
350
38D
  3
TSTACKSIZE
350
38E
  3
UCSBASE
350
3A6
  3
UCSORGBACK
350
3AC
  3
UCSORGBOTTOM
350
3A8
  3
UCSORGFRONT
350
3AB
  3
UCSORGLEFT
350
3A9
  3
UCSORGRIGHT
350
3AA
  3
UCSORGTOP
350
3A7
  3
UCSORTHOREF
350
3A4
  3
UCSORTHOVIEW
350
3A5
  3
VERSIONGUID
350
398
  0
XRECORD
  5
3AE
102
{ACAD_REACTORS
330
3AD
102
}
330
3AD
100
AcDbXrecord
340
A
  0
XRECORD
  5
3B0
102
{ACAD_REACTORS
330
3AF
102
}
330
3AF
100
AcDbXrecord
340
B
  0
MLINESTYLE
  5
1C
102
{ACAD_REACTORS
330
1B
102
}
330
1B
100
AcDbMlineStyle
  2
STANDARD
 70
     0
  3

 62
     0
 51
90.0
 52
90.0
 71
     2
 49
0.5
 62
   256
  6
BYLAYER
 49
-0.5
 62
   256
  6
BYLAYER
  0
ACDBPLACEHOLDER
  5
1D
102
{ACAD_REACTORS
330
1F
102
}
330
1F
100
AcDbPlaceHolder
280
     0
  0
XRECORD
  5
396
102
{ACAD_REACTORS
330
38C
102
}
330
38C
100
AcDbXrecord
 90
        0
  0
XRECORD
  5
39A
102
{ACAD_REACTORS
330
38C
102
}
330
38C
100
AcDbXrecord
1000
DSTYLE
1002
{
1070
   278
 70
     0
1070
   371
 70
     0
1070
   372
 70
     0
1002
}
  0
XRECORD
  5
397
102
{ACAD_REACTORS
330
38C
102
}
330
38C
100
AcDbXrecord
  1

  0
XRECORD
  5
38F
102
{ACAD_REACTORS
330
38C
102
}
330
38C
100
AcDbXrecord
  1

  0
XRECORD
  5
395
102
{ACAD_REACTORS
330
38C
102
}
330
38C
100
AcDbXrecord
 90
        0
  0
XRECORD
  5
391
102
{ACAD_REACTORS
330
38C
102
}
330
38C
100
AcDbXrecord
340
1E
  0
XRECORD
  5
394
102
{ACAD_REACTORS
330
38C
102
}
330
38C
100
AcDbXrecord
 90
    10752
  0
XRECORD
  5
392
102
{ACAD_REACTORS
330
38C
102
}
330
38C
100
AcDbXrecord
340
22
  0
XRECORD
  5
393
102
{ACAD_REACTORS
330
38C
102
}
330
38C
100
AcDbXrecord
340
1F
  0
XRECORD
  5
399
102
{ACAD_REACTORS
330
38C
102
}
330
38C
100
AcDbXrecord
 40
0.0
  0
XRECORD
  5
39D
102
{ACAD_REACTORS
330
38C
102
}
330
38C
100
AcDbXrecord
340
0
  0
XRECORD
  5
3A3
102
{ACAD_REACTORS
330
38C
102
}
330
38C
100
AcDbXrecord
 10
0.0
 20
0.0
 30
0.0
  0
XRECORD
  5
39F
102
{ACAD_REACTORS
330
38C
102
}
330
38C
100
AcDbXrecord
 10
0.0
 20
0.0
 30
0.0
  0
XRECORD
  5
3A2
102
{ACAD_REACTORS
330
38C
102
}
330
38C
100
AcDbXrecord
 10
0.0
 20
0.0
 30
0.0
  0
XRECORD
  5
3A0
102
{ACAD_REACTORS
330
38C
102
}
330
38C
100
AcDbXrecord
 10
0.0
 20
0.0
 30
0.0
  0
XRECORD
  5
3A1
102
{ACAD_REACTORS
330
38C
102
}
330
38C
100
AcDbXrecord
 10
0.0
 20
0.0
 30
0.0
  0
XRECORD
  5
39E
102
{ACAD_REACTORS
330
38C
102
}
330
38C
100
AcDbXrecord
 10
0.0
 20
0.0
 30
0.0
  0
XRECORD
  5
39B
102
{ACAD_REACTORS
330
38C
102
}
330
38C
100
AcDbXrecord
340
0
  0
XRECORD
  5
39C
102
{ACAD_REACTORS
330
38C
102
}
330
38C
100
AcDbXrecord
 70
     0
  0
XRECORD
  5
390
102
{ACAD_REACTORS
330
38C
102
}
330
38C
100
AcDbXrecord
  1

  0
XRECORD
  5
38D
102
{ACAD_REACTORS
330
38C
102
}
330
38C
100
AcDbXrecord
 90
        1
  0
XRECORD
  5
38E
102
{ACAD_REACTORS
330
38C
102
}
330
38C
100
AcDbXrecord
 90
       70
  0
XRECORD
  5
3A6
102
{ACAD_REACTORS
330
38C
102
}
330
38C
100
AcDbXrecord
340
0
  0
XRECORD
  5
3AC
102
{ACAD_REACTORS
330
38C
102
}
330
38C
100
AcDbXrecord
 10
0.0
 20
0.0
 30
0.0
  0
XRECORD
  5
3A8
102
{ACAD_REACTORS
330
38C
102
}
330
38C
100
AcDbXrecord
 10
0.0
 20
0.0
 30
0.0
  0
XRECORD
  5
3AB
102
{ACAD_REACTORS
330
38C
102
}
330
38C
100
AcDbXrecord
 10
0.0
 20
0.0
 30
0.0
  0
XRECORD
  5
3A9
102
{ACAD_REACTORS
330
38C
102
}
330
38C
100
AcDbXrecord
 10
0.0
 20
0.0
 30
0.0
  0
XRECORD
  5
3AA
102
{ACAD_REACTORS
330
38C
102
}
330
38C
100
AcDbXrecord
 10
0.0
 20
0.0
 30
0.0
  0
XRECORD
  5
3A7
102
{ACAD_REACTORS
330
38C
102
}
330
38C
100
AcDbXrecord
 10
0.0
 20
0.0
 30
0.0
  0
XRECORD
  5
3A4
102
{ACAD_REACTORS
330
38C
102
}
330
38C
100
AcDbXrecord
340
0
  0
XRECORD
  5
3A5
102
{ACAD_REACTORS
330
38C
102
}
330
38C
100
AcDbXrecord
 70
     1
  0
XRECORD
  5
398
102
{ACAD_REACTORS
330
38C
102
}
330
38C
100
AcDbXrecord
  1
{A30C9D8C-90B1-480F-9885-A2659BCBA6F5}
  0
ENDSEC
  0
EOF
