  0
SECTION
  2
HEADER
  9
$ACADVER
  1
AC1015
  9
$ACADMAINTVER
 70
    10
  9
$DWGCODEPAGE
  3
ANSI_1252
  9
$INSBASE
 10
0.0
 20
0.0
 30
0.0
  9
$EXTMIN
 10
2.532897980107108
 20
7.585098296386536
 30
-0.0015258207003583
  9
$EXTMAX
 10
11.40527346474732
 20
14.97683718611583
 30
0.0000000349246037
  9
$LIMMIN
 10
0.0
 20
0.0
  9
$LIMMAX
 10
12.0
 20
9.0
  9
$ORTHOMODE
 70
     0
  9
$REGENMODE
 70
     1
  9
$FILLMODE
 70
     1
  9
$QTEXTMODE
 70
     0
  9
$MIRRTEXT
 70
     1
  9
$LTSCALE
 40
1.0
  9
$ATTMODE
 70
     1
  9
$TEXTSIZE
 40
0.2
  9
$TRACEWID
 40
0.05
  9
$TEXTSTYLE
  7
STANDARD
  9
$CLAYER
  8
0
  9
$CELTYPE
  6
ByLayer
  9
$CECOLOR
 62
   256
  9
$CELTSCALE
 40
1.0
  9
$DISPSILH
 70
     0
  9
$DIMSCALE
 40
1.0
  9
$DIMASZ
 40
0.18
  9
$DIMEXO
 40
0.0625
  9
$DIMDLI
 40
0.38
  9
$DIMRND
 40
0.0
  9
$DIMDLE
 40
0.0
  9
$DIMEXE
 40
0.18
  9
$DIMTP
 40
0.0
  9
$DIMTM
 40
0.0
  9
$DIMTXT
 40
0.18
  9
$DIMCEN
 40
0.09
  9
$DIMTSZ
 40
0.0
  9
$DIMTOL
 70
     0
  9
$DIMLIM
 70
     0
  9
$DIMTIH
 70
     1
  9
$DIMTOH
 70
     1
  9
$DIMSE1
 70
     0
  9
$DIMSE2
 70
     0
  9
$DIMTAD
 70
     0
  9
$DIMZIN
 70
     0
  9
$DIMBLK
  1

  9
$DIMASO
 70
     1
  9
$DIMSHO
 70
     1
  9
$DIMPOST
  1

  9
$DIMAPOST
  1

  9
$DIMALT
 70
     0
  9
$DIMALTD
 70
     2
  9
$DIMALTF
 40
25.4
  9
$DIMLFAC
 40
1.0
  9
$DIMTOFL
 70
     0
  9
$DIMTVP
 40
0.0
  9
$DIMTIX
 70
     0
  9
$DIMSOXD
 70
     0
  9
$DIMSAH
 70
     0
  9
$DIMBLK1
  1

  9
$DIMBLK2
  1

  9
$DIMSTYLE
  2
Standard
  9
$DIMCLRD
 70
     0
  9
$DIMCLRE
 70
     0
  9
$DIMCLRT
 70
     0
  9
$DIMTFAC
 40
1.0
  9
$DIMGAP
 40
0.09
  9
$DIMJUST
 70
     0
  9
$DIMSD1
 70
     0
  9
$DIMSD2
 70
     0
  9
$DIMTOLJ
 70
     1
  9
$DIMTZIN
 70
     0
  9
$DIMALTZ
 70
     0
  9
$DIMALTTZ
 70
     0
  9
$DIMUPT
 70
     0
  9
$DIMDEC
 70
     4
  9
$DIMTDEC
 70
     4
  9
$DIMALTU
 70
     2
  9
$DIMALTTD
 70
     2
  9
$DIMTXSTY
  7
STANDARD
  9
$DIMAUNIT
 70
     0
  9
$DIMADEC
 70
     0
  9
$DIMALTRND
 40
0.0
  9
$DIMAZIN
 70
     0
  9
$DIMDSEP
 70
    46
  9
$DIMATFIT
 70
     3
  9
$DIMFRAC
 70
     0
  9
$DIMLDRBLK
  1

  9
$DIMLUNIT
 70
     2
  9
$DIMLWD
 70
    -2
  9
$DIMLWE
 70
    -2
  9
$DIMTMOVE
 70
     2
  9
$LUNITS
 70
     2
  9
$LUPREC
 70
     4
  9
$SKETCHINC
 40
0.1
  9
$FILLETRAD
 40
0.0
  9
$AUNITS
 70
     0
  9
$AUPREC
 70
     0
  9
$MENU
  1
acad
  9
$ELEVATION
 40
0.0
  9
$PELEVATION
 40
0.0
  9
$THICKNESS
 40
0.0
  9
$LIMCHECK
 70
     0
  9
$CHAMFERA
 40
0.0
  9
$CHAMFERB
 40
0.0
  9
$CHAMFERC
 40
0.0
  9
$CHAMFERD
 40
0.0
  9
$SKPOLY
 70
     0
  9
$TDCREATE
 40
2454153.660104166
  9
$TDUCREATE
 40
2454153.910104166
  9
$TDUPDATE
 40
2454153.664057997
  9
$TDUUPDATE
 40
2454153.914057997
  9
$TDINDWG
 40
0.0031785069
  9
$TDUSRTIMER
 40
0.0031785069
  9
$USRTIMER
 70
     1
  9
$ANGBASE
 50
0.0
  9
$ANGDIR
 70
     0
  9
$PDMODE
 70
     0
  9
$PDSIZE
 40
0.0
  9
$PLINEWID
 40
0.0
  9
$SPLFRAME
 70
     0
  9
$SPLINETYPE
 70
     6
  9
$SPLINESEGS
 70
     8
  9
$HANDSEED
  5
2595
  9
$SURFTAB1
 70
     6
  9
$SURFTAB2
 70
     6
  9
$SURFTYPE
 70
     6
  9
$SURFU
 70
     6
  9
$SURFV
 70
     6
  9
$UCSBASE
  2

  9
$UCSNAME
  2

  9
$UCSORG
 10
0.0
 20
0.0
 30
0.0
  9
$UCSXDIR
 10
1.0
 20
0.0
 30
0.0
  9
$UCSYDIR
 10
0.0
 20
1.0
 30
0.0
  9
$UCSORTHOREF
  2

  9
$UCSORTHOVIEW
 70
     0
  9
$UCSORGTOP
 10
0.0
 20
0.0
 30
0.0
  9
$UCSORGBOTTOM
 10
0.0
 20
0.0
 30
0.0
  9
$UCSORGLEFT
 10
0.0
 20
0.0
 30
0.0
  9
$UCSORGRIGHT
 10
0.0
 20
0.0
 30
0.0
  9
$UCSORGFRONT
 10
0.0
 20
0.0
 30
0.0
  9
$UCSORGBACK
 10
0.0
 20
0.0
 30
0.0
  9
$PUCSBASE
  2

  9
$PUCSNAME
  2

  9
$PUCSORG
 10
0.0
 20
0.0
 30
0.0
  9
$PUCSXDIR
 10
1.0
 20
0.0
 30
0.0
  9
$PUCSYDIR
 10
0.0
 20
1.0
 30
0.0
  9
$PUCSORTHOREF
  2

  9
$PUCSORTHOVIEW
 70
     0
  9
$PUCSORGTOP
 10
0.0
 20
0.0
 30
0.0
  9
$PUCSORGBOTTOM
 10
0.0
 20
0.0
 30
0.0
  9
$PUCSORGLEFT
 10
0.0
 20
0.0
 30
0.0
  9
$PUCSORGRIGHT
 10
0.0
 20
0.0
 30
0.0
  9
$PUCSORGFRONT
 10
0.0
 20
0.0
 30
0.0
  9
$PUCSORGBACK
 10
0.0
 20
0.0
 30
0.0
  9
$USERI1
 70
     0
  9
$USERI2
 70
     0
  9
$USERI3
 70
     0
  9
$USERI4
 70
     0
  9
$USERI5
 70
     0
  9
$USERR1
 40
0.0
  9
$USERR2
 40
0.0
  9
$USERR3
 40
0.0
  9
$USERR4
 40
0.0
  9
$USERR5
 40
0.0
  9
$WORLDVIEW
 70
     1
  9
$SHADEDGE
 70
     3
  9
$SHADEDIF
 70
    70
  9
$TILEMODE
 70
     1
  9
$MAXACTVP
 70
    16
  9
$PINSBASE
 10
0.0
 20
0.0
 30
0.0
  9
$PLIMCHECK
 70
     0
  9
$PEXTMIN
 10
1.000000000000000E+20
 20
1.000000000000000E+20
 30
1.000000000000000E+20
  9
$PEXTMAX
 10
-1.000000000000000E+20
 20
-1.000000000000000E+20
 30
-1.000000000000000E+20
  9
$PLIMMIN
 10
0.0
 20
0.0
  9
$PLIMMAX
 10
12.0
 20
9.0
  9
$UNITMODE
 70
     0
  9
$VISRETAIN
 70
     0
  9
$PLINEGEN
 70
     0
  9
$PSLTSCALE
 70
     1
  9
$TREEDEPTH
 70
  3020
  9
$CMLSTYLE
  2
Standard
  9
$CMLJUST
 70
     0
  9
$CMLSCALE
 40
1.0
  9
$PROXYGRAPHICS
 70
     1
  9
$MEASUREMENT
 70
     0
  9
$CELWEIGHT
370
    -1
  9
$ENDCAPS
280
     0
  9
$JOINSTYLE
280
     0
  9
$LWDISPLAY
290
     0
  9
$INSUNITS
 70
     0
  9
$HYPERLINKBASE
  1

  9
$STYLESHEET
  1

  9
$XEDIT
290
     1
  9
$CEPSNTYPE
380
     0
  9
$PSTYLEMODE
290
     1
  9
$FINGERPRINTGUID
  2
{5DA88D7F-07F6-4F5F-B251-E219F17424BB}
  9
$VERSIONGUID
  2
{73BEC574-F6F4-435F-909F-CC94F650AF39}
  9
$EXTNAMES
290
     1
  9
$PSVPSCALE
 40
0.0
  9
$OLESTARTUP
290
     0
  0
ENDSEC
  0
SECTION
  2
CLASSES
  0
CLASS
  1
ACDBDICTIONARYWDFLT
  2
AcDbDictionaryWithDefault
  3
AutoCAD 2000
 90
        0
280
     0
281
     0
  0
CLASS
  1
ACDBPLACEHOLDER
  2
AcDbPlaceHolder
  3
AutoCAD 2000
 90
        0
280
     0
281
     0
  0
CLASS
  1
LAYOUT
  2
AcDbLayout
  3
AutoCAD 2000
 90
        0
280
     0
281
     0
  0
ENDSEC
  0
SECTION
  2
TABLES
  0
TABLE
  2
VPORT
  5
8
330
0
100
AcDbSymbolTable
 70
     5
  0
VPORT
  5
2594
330
8
100
AcDbSymbolTableRecord
100
AcDbViewportTableRecord
  2
*Active
 70
     0
 10
0.0
 20
0.0
 11
1.0
 21
1.0
 12
6.969085722427215
 22
11.28096774125118
 13
0.0
 23
0.0
 14
1.0
 24
1.0
 15
0.0
 25
0.0
 16
0.0
 26
0.0
 36
1.0
 17
0.0
 27
0.0
 37
0.0
 40
7.446832595739704
 41
1.498756218905472
 42
50.0
 43
0.0
 44
0.0
 50
0.0
 51
0.0
 71
     0
 72
   100
 73
     1
 74
     1
 75
     0
 76
     0
 77
     0
 78
     0
281
     0
 65
     1
110
0.0
120
0.0
130
0.0
111
1.0
121
0.0
131
0.0
112
0.0
122
1.0
132
0.0
 79
     0
146
0.0
  0
ENDTAB
  0
TABLE
  2
LTYPE
  5
5
330
0
100
AcDbSymbolTable
 70
    25
  0
LTYPE
  5
13
330
5
100
AcDbSymbolTableRecord
100
AcDbLinetypeTableRecord
  2
ByBlock
 70
     0
  3

 72
    65
 73
     0
 40
0.0
  0
LTYPE
  5
14
330
5
100
AcDbSymbolTableRecord
100
AcDbLinetypeTableRecord
  2
ByLayer
 70
     0
  3

 72
    65
 73
     0
 40
0.0
  0
LTYPE
  5
15
330
5
100
AcDbSymbolTableRecord
100
AcDbLinetypeTableRecord
  2
CONTINUOUS
 70
     0
  3
Solid line
 72
    65
 73
     0
 40
0.0
  0
LTYPE
  5
22
330
5
100
AcDbSymbolTableRecord
100
AcDbLinetypeTableRecord
  2
BORDER
 70
     0
  3
__ __ . __ __ . __ __ . __ __ . __ __ . __ __ .
 72
    65
 73
     6
 40
1.75
 49
0.5
 74
     0
 49
-0.25
 74
     0
 49
0.5
 74
     0
 49
-0.25
 74
     0
 49
0.5
 74
     0
 49
-0.25
 74
     0
  0
LTYPE
  5
23
330
5
100
AcDbSymbolTableRecord
100
AcDbLinetypeTableRecord
  2
BORDER2
 70
     0
  3
__.__.__.__.__.__.__.__.
 72
    65
 73
     6
 40
0.875
 49
0.25
 74
     0
 49
-0.125
 74
     0
 49
0.25
 74
     0
 49
-0.125
 74
     0
 49
0.25
 74
     0
 49
-0.125
 74
     0
  0
LTYPE
  5
24
330
5
100
AcDbSymbolTableRecord
100
AcDbLinetypeTableRecord
  2
BORDERX2
 70
     0
  3
____  ____  .  
 72
    65
 73
     6
 40
3.5
 49
1.0
 74
     0
 49
-0.5
 74
     0
 49
1.0
 74
     0
 49
-0.5
 74
     0
 49
1.0
 74
     0
 49
-0.5
 74
     0
  0
LTYPE
  5
25
330
5
100
AcDbSymbolTableRecord
100
AcDbLinetypeTableRecord
  2
CENTER
 70
     0
  3
____ _ ____ _ ____ _ 
 72
    65
 73
     4
 40
2.0
 49
1.25
 74
     0
 49
-0.25
 74
     0
 49
0.25
 74
     0
 49
-0.25
 74
     0
  0
LTYPE
  5
26
330
5
100
AcDbSymbolTableRecord
100
AcDbLinetypeTableRecord
  2
CENTER2
 70
     0
  3
____ _ ____ _ ____ _ 
 72
    65
 73
     4
 40
1.125
 49
0.75
 74
     0
 49
-0.125
 74
     0
 49
0.125
 74
     0
 49
-0.125
 74
     0
  0
LTYPE
  5
27
330
5
100
AcDbSymbolTableRecord
100
AcDbLinetypeTableRecord
  2
CENTERX2
 70
     0
  3
________  __  
 72
    65
 73
     4
 40
4.0
 49
2.5
 74
     0
 49
-0.5
 74
     0
 49
0.5
 74
     0
 49
-0.5
 74
     0
  0
LTYPE
  5
28
330
5
100
AcDbSymbolTableRecord
100
AcDbLinetypeTableRecord
  2
DASHDOT
 70
     0
  3
__ . __ . __ . __ . 
 72
    65
 73
     4
 40
1.0
 49
0.5
 74
     0
 49
-0.25
 74
     0
 49
0.0
 74
     0
 49
-0.25
 74
     0
  0
LTYPE
  5
29
330
5
100
AcDbSymbolTableRecord
100
AcDbLinetypeTableRecord
  2
DASHDOT2
 70
     0
  3
_._._._._._._._._.
 72
    65
 73
     4
 40
0.5
 49
0.25
 74
     0
 49
-0.125
 74
     0
 49
0.0
 74
     0
 49
-0.125
 74
     0
  0
LTYPE
  5
2A
330
5
100
AcDbSymbolTableRecord
100
AcDbLinetypeTableRecord
  2
DASHDOTX2
 70
     0
  3
____  .  ____  .  
 72
    65
 73
     4
 40
2.0
 49
1.0
 74
     0
 49
-0.5
 74
     0
 49
0.0
 74
     0
 49
-0.5
 74
     0
  0
LTYPE
  5
2B
330
5
100
AcDbSymbolTableRecord
100
AcDbLinetypeTableRecord
  2
DASHED
 70
     0
  3
__ __ __ __ __ __ __ 
 72
    65
 73
     2
 40
0.75
 49
0.5
 74
     0
 49
-0.25
 74
     0
  0
LTYPE
  5
2C
330
5
100
AcDbSymbolTableRecord
100
AcDbLinetypeTableRecord
  2
DASHED2
 70
     0
  3
_ _ _ _ _ _ _ _ _ _ 
 72
    65
 73
     2
 40
0.375
 49
0.25
 74
     0
 49
-0.125
 74
     0
  0
LTYPE
  5
2D
330
5
100
AcDbSymbolTableRecord
100
AcDbLinetypeTableRecord
  2
DASHEDX2
 70
     0
  3
____  ____  ____  
 72
    65
 73
     2
 40
1.5
 49
1.0
 74
     0
 49
-0.5
 74
     0
  0
LTYPE
  5
2E
330
5
100
AcDbSymbolTableRecord
100
AcDbLinetypeTableRecord
  2
DIVIDE
 70
     0
  3
____ . . ____ . . 
 72
    65
 73
     6
 40
1.25
 49
0.5
 74
     0
 49
-0.25
 74
     0
 49
0.0
 74
     0
 49
-0.25
 74
     0
 49
0.0
 74
     0
 49
-0.25
 74
     0
  0
LTYPE
  5
2F
330
5
100
AcDbSymbolTableRecord
100
AcDbLinetypeTableRecord
  2
DIVIDE2
 70
     0
  3
__..__..__..__..__..
 72
    65
 73
     6
 40
0.625
 49
0.25
 74
     0
 49
-0.125
 74
     0
 49
0.0
 74
     0
 49
-0.125
 74
     0
 49
0.0
 74
     0
 49
-0.125
 74
     0
  0
LTYPE
  5
30
330
5
100
AcDbSymbolTableRecord
100
AcDbLinetypeTableRecord
  2
DIVIDEX2
 70
     0
  3
________  .  .  
 72
    65
 73
     6
 40
2.5
 49
1.0
 74
     0
 49
-0.5
 74
     0
 49
0.0
 74
     0
 49
-0.5
 74
     0
 49
0.0
 74
     0
 49
-0.5
 74
     0
  0
LTYPE
  5
31
330
5
100
AcDbSymbolTableRecord
100
AcDbLinetypeTableRecord
  2
DOT
 70
     0
  3
. . . . . . . . . 
 72
    65
 73
     2
 40
0.25
 49
0.0
 74
     0
 49
-0.25
 74
     0
  0
LTYPE
  5
32
330
5
100
AcDbSymbolTableRecord
100
AcDbLinetypeTableRecord
  2
DOT2
 70
     0
  3
..................
 72
    65
 73
     2
 40
0.125
 49
0.0
 74
     0
 49
-0.125
 74
     0
  0
LTYPE
  5
33
330
5
100
AcDbSymbolTableRecord
100
AcDbLinetypeTableRecord
  2
DOTX2
 70
     0
  3
.  .  .  .  .  .  
 72
    65
 73
     2
 40
0.5
 49
0.0
 74
     0
 49
-0.5
 74
     0
  0
LTYPE
  5
34
330
5
100
AcDbSymbolTableRecord
100
AcDbLinetypeTableRecord
  2
HIDDEN
 70
     0
  3
__ __ __ __ __ __ 
 72
    65
 73
     2
 40
0.375
 49
0.25
 74
     0
 49
-0.125
 74
     0
  0
LTYPE
  5
35
330
5
100
AcDbSymbolTableRecord
100
AcDbLinetypeTableRecord
  2
HIDDEN2
 70
     0
  3
_ _ _ _ _ _ _ _ _ 
 72
    65
 73
     2
 40
0.1875
 49
0.125
 74
     0
 49
-0.0625
 74
     0
  0
LTYPE
  5
36
330
5
100
AcDbSymbolTableRecord
100
AcDbLinetypeTableRecord
  2
HIDDENX2
 70
     0
  3
____ ____ ____ ____ 
 72
    65
 73
     2
 40
0.75
 49
0.5
 74
     0
 49
-0.25
 74
     0
  0
LTYPE
  5
37
330
5
100
AcDbSymbolTableRecord
100
AcDbLinetypeTableRecord
  2
PHANTOM
 70
     0
  3
______  __  __  
 72
    65
 73
     6
 40
2.5
 49
1.25
 74
     0
 49
-0.25
 74
     0
 49
0.25
 74
     0
 49
-0.25
 74
     0
 49
0.25
 74
     0
 49
-0.25
 74
     0
  0
LTYPE
  5
38
330
5
100
AcDbSymbolTableRecord
100
AcDbLinetypeTableRecord
  2
PHANTOM2
 70
     0
  3
___ _ _ ___ _ _ 
 72
    65
 73
     6
 40
1.25
 49
0.625
 74
     0
 49
-0.125
 74
     0
 49
0.125
 74
     0
 49
-0.125
 74
     0
 49
0.125
 74
     0
 49
-0.125
 74
     0
  0
LTYPE
  5
39
330
5
100
AcDbSymbolTableRecord
100
AcDbLinetypeTableRecord
  2
PHANTOMX2
 70
     0
  3
___ _ _ ___ _ _ 
 72
    65
 73
     6
 40
5.0
 49
2.5
 74
     0
 49
-0.5
 74
     0
 49
0.5
 74
     0
 49
-0.5
 74
     0
 49
0.5
 74
     0
 49
-0.5
 74
     0
  0
ENDTAB
  0
TABLE
  2
LAYER
  5
2
330
0
100
AcDbSymbolTable
 70
   257
  0
LAYER
  5
10
330
2
100
AcDbSymbolTableRecord
100
AcDbLayerTableRecord
  2
0
 70
     0
 62
     7
  6
CONTINUOUS
370
    -3
390
F
  0
LAYER
  5
3A
330
2
100
AcDbSymbolTableRecord
100
AcDbLayerTableRecord
  2
1
 70
     0
 62
     1
  6
CONTINUOUS
370
    -3
390
F
  0
LAYER
  5
3B
330
2
100
AcDbSymbolTableRecord
100
AcDbLayerTableRecord
  2
2
 70
     0
 62
     2
  6
CONTINUOUS
370
    -3
390
F
  0
LAYER
  5
3C
330
2
100
AcDbSymbolTableRecord
100
AcDbLayerTableRecord
  2
3
 70
     0
 62
     3
  6
CONTINUOUS
370
    -3
390
F
  0
LAYER
  5
3D
330
2
100
AcDbSymbolTableRecord
100
AcDbLayerTableRecord
  2
4
 70
     0
 62
     4
  6
CONTINUOUS
370
    -3
390
F
  0
LAYER
  5
3E
330
2
100
AcDbSymbolTableRecord
100
AcDbLayerTableRecord
  2
5
 70
     0
 62
     5
  6
CONTINUOUS
370
    -3
390
F
  0
LAYER
  5
3F
330
2
100
AcDbSymbolTableRecord
100
AcDbLayerTableRecord
  2
6
 70
     0
 62
     6
  6
CONTINUOUS
370
    -3
390
F
  0
LAYER
  5
40
330
2
100
AcDbSymbolTableRecord
100
AcDbLayerTableRecord
  2
7
 70
     0
 62
     7
  6
CONTINUOUS
370
    -3
390
F
  0
LAYER
  5
41
330
2
100
AcDbSymbolTableRecord
100
AcDbLayerTableRecord
  2
8
 70
     0
 62
     8
  6
CONTINUOUS
370
    -3
390
F
  0
LAYER
  5
42
330
2
100
AcDbSymbolTableRecord
100
AcDbLayerTableRecord
  2
9
 70
     0
 62
     9
  6
CONTINUOUS
370
    -3
390
F
  0
LAYER
  5
43
330
2
100
AcDbSymbolTableRecord
100
AcDbLayerTableRecord
  2
10
 70
     0
 62
    10
  6
CONTINUOUS
370
    -3
390
F
  0
LAYER
  5
44
330
2
100
AcDbSymbolTableRecord
100
AcDbLayerTableRecord
  2
11
 70
     0
 62
    11
  6
CONTINUOUS
370
    -3
390
F
  0
LAYER
  5
45
330
2
100
AcDbSymbolTableRecord
100
AcDbLayerTableRecord
  2
12
 70
     0
 62
    12
  6
CONTINUOUS
370
    -3
390
F
  0
LAYER
  5
46
330
2
100
AcDbSymbolTableRecord
100
AcDbLayerTableRecord
  2
13
 70
     0
 62
    13
  6
CONTINUOUS
370
    -3
390
F
  0
LAYER
  5
47
330
2
100
AcDbSymbolTableRecord
100
AcDbLayerTableRecord
  2
14
 70
     0
 62
    14
  6
CONTINUOUS
370
    -3
390
F
  0
LAYER
  5
48
330
2
100
AcDbSymbolTableRecord
100
AcDbLayerTableRecord
  2
15
 70
     0
 62
    15
  6
CONTINUOUS
370
    -3
390
F
  0
LAYER
  5
49
330
2
100
AcDbSymbolTableRecord
100
AcDbLayerTableRecord
  2
16
 70
     0
 62
    16
  6
CONTINUOUS
370
    -3
390
F
  0
LAYER
  5
4A
330
2
100
AcDbSymbolTableRecord
100
AcDbLayerTableRecord
  2
17
 70
     0
 62
    17
  6
CONTINUOUS
370
    -3
390
F
  0
LAYER
  5
4B
330
2
100
AcDbSymbolTableRecord
100
AcDbLayerTableRecord
  2
18
 70
     0
 62
    18
  6
CONTINUOUS
370
    -3
390
F
  0
LAYER
  5
4C
330
2
100
AcDbSymbolTableRecord
100
AcDbLayerTableRecord
  2
19
 70
     0
 62
    19
  6
CONTINUOUS
370
    -3
390
F
  0
LAYER
  5
4D
330
2
100
AcDbSymbolTableRecord
100
AcDbLayerTableRecord
  2
20
 70
     0
 62
    20
  6
CONTINUOUS
370
    -3
390
F
  0
LAYER
  5
4E
330
2
100
AcDbSymbolTableRecord
100
AcDbLayerTableRecord
  2
21
 70
     0
 62
    21
  6
CONTINUOUS
370
    -3
390
F
  0
LAYER
  5
4F
330
2
100
AcDbSymbolTableRecord
100
AcDbLayerTableRecord
  2
22
 70
     0
 62
    22
  6
CONTINUOUS
370
    -3
390
F
  0
LAYER
  5
50
330
2
100
AcDbSymbolTableRecord
100
AcDbLayerTableRecord
  2
23
 70
     0
 62
    23
  6
CONTINUOUS
370
    -3
390
F
  0
LAYER
  5
51
330
2
100
AcDbSymbolTableRecord
100
AcDbLayerTableRecord
  2
24
 70
     0
 62
    24
  6
CONTINUOUS
370
    -3
390
F
  0
LAYER
  5
52
330
2
100
AcDbSymbolTableRecord
100
AcDbLayerTableRecord
  2
25
 70
     0
 62
    25
  6
CONTINUOUS
370
    -3
390
F
  0
LAYER
  5
53
330
2
100
AcDbSymbolTableRecord
100
AcDbLayerTableRecord
  2
26
 70
     0
 62
    26
  6
CONTINUOUS
370
    -3
390
F
  0
LAYER
  5
54
330
2
100
AcDbSymbolTableRecord
100
AcDbLayerTableRecord
  2
27
 70
     0
 62
    27
  6
CONTINUOUS
370
    -3
390
F
  0
LAYER
  5
55
330
2
100
AcDbSymbolTableRecord
100
AcDbLayerTableRecord
  2
28
 70
     0
 62
    28
  6
CONTINUOUS
370
    -3
390
F
  0
LAYER
  5
56
330
2
100
AcDbSymbolTableRecord
100
AcDbLayerTableRecord
  2
29
 70
     0
 62
    29
  6
CONTINUOUS
370
    -3
390
F
  0
LAYER
  5
57
330
2
100
AcDbSymbolTableRecord
100
AcDbLayerTableRecord
  2
30
 70
     0
 62
    30
  6
CONTINUOUS
370
    -3
390
F
  0
LAYER
  5
58
330
2
100
AcDbSymbolTableRecord
100
AcDbLayerTableRecord
  2
31
 70
     0
 62
    31
  6
CONTINUOUS
370
    -3
390
F
  0
LAYER
  5
59
330
2
100
AcDbSymbolTableRecord
100
AcDbLayerTableRecord
  2
32
 70
     0
 62
    32
  6
CONTINUOUS
370
    -3
390
F
  0
LAYER
  5
5A
330
2
100
AcDbSymbolTableRecord
100
AcDbLayerTableRecord
  2
33
 70
     0
 62
    33
  6
CONTINUOUS
370
    -3
390
F
  0
LAYER
  5
5B
330
2
100
AcDbSymbolTableRecord
100
AcDbLayerTableRecord
  2
34
 70
     0
 62
    34
  6
CONTINUOUS
370
    -3
390
F
  0
LAYER
  5
5C
330
2
100
AcDbSymbolTableRecord
100
AcDbLayerTableRecord
  2
35
 70
     0
 62
    35
  6
CONTINUOUS
370
    -3
390
F
  0
LAYER
  5
5D
330
2
100
AcDbSymbolTableRecord
100
AcDbLayerTableRecord
  2
36
 70
     0
 62
    36
  6
CONTINUOUS
370
    -3
390
F
  0
LAYER
  5
5E
330
2
100
AcDbSymbolTableRecord
100
AcDbLayerTableRecord
  2
37
 70
     0
 62
    37
  6
CONTINUOUS
370
    -3
390
F
  0
LAYER
  5
5F
330
2
100
AcDbSymbolTableRecord
100
AcDbLayerTableRecord
  2
38
 70
     0
 62
    38
  6
CONTINUOUS
370
    -3
390
F
  0
LAYER
  5
60
330
2
100
AcDbSymbolTableRecord
100
AcDbLayerTableRecord
  2
39
 70
     0
 62
    39
  6
CONTINUOUS
370
    -3
390
F
  0
LAYER
  5
61
330
2
100
AcDbSymbolTableRecord
100
AcDbLayerTableRecord
  2
40
 70
     0
 62
    40
  6
CONTINUOUS
370
    -3
390
F
  0
LAYER
  5
62
330
2
100
AcDbSymbolTableRecord
100
AcDbLayerTableRecord
  2
41
 70
     0
 62
    41
  6
CONTINUOUS
370
    -3
390
F
  0
LAYER
  5
63
330
2
100
AcDbSymbolTableRecord
100
AcDbLayerTableRecord
  2
42
 70
     0
 62
    42
  6
CONTINUOUS
370
    -3
390
F
  0
LAYER
  5
64
330
2
100
AcDbSymbolTableRecord
100
AcDbLayerTableRecord
  2
43
 70
     0
 62
    43
  6
CONTINUOUS
370
    -3
390
F
  0
LAYER
  5
65
330
2
100
AcDbSymbolTableRecord
100
AcDbLayerTableRecord
  2
44
 70
     0
 62
    44
  6
CONTINUOUS
370
    -3
390
F
  0
LAYER
  5
66
330
2
100
AcDbSymbolTableRecord
100
AcDbLayerTableRecord
  2
45
 70
     0
 62
    45
  6
CONTINUOUS
370
    -3
390
F
  0
LAYER
  5
67
330
2
100
AcDbSymbolTableRecord
100
AcDbLayerTableRecord
  2
46
 70
     0
 62
    46
  6
CONTINUOUS
370
    -3
390
F
  0
LAYER
  5
68
330
2
100
AcDbSymbolTableRecord
100
AcDbLayerTableRecord
  2
47
 70
     0
 62
    47
  6
CONTINUOUS
370
    -3
390
F
  0
LAYER
  5
69
330
2
100
AcDbSymbolTableRecord
100
AcDbLayerTableRecord
  2
48
 70
     0
 62
    48
  6
CONTINUOUS
370
    -3
390
F
  0
LAYER
  5
6A
330
2
100
AcDbSymbolTableRecord
100
AcDbLayerTableRecord
  2
49
 70
     0
 62
    49
  6
CONTINUOUS
370
    -3
390
F
  0
LAYER
  5
6B
330
2
100
AcDbSymbolTableRecord
100
AcDbLayerTableRecord
  2
50
 70
     0
 62
    50
  6
CONTINUOUS
370
    -3
390
F
  0
LAYER
  5
6C
330
2
100
AcDbSymbolTableRecord
100
AcDbLayerTableRecord
  2
51
 70
     0
 62
    51
  6
CONTINUOUS
370
    -3
390
F
  0
LAYER
  5
6D
330
2
100
AcDbSymbolTableRecord
100
AcDbLayerTableRecord
  2
52
 70
     0
 62
    52
  6
CONTINUOUS
370
    -3
390
F
  0
LAYER
  5
6E
330
2
100
AcDbSymbolTableRecord
100
AcDbLayerTableRecord
  2
53
 70
     0
 62
    53
  6
CONTINUOUS
370
    -3
390
F
  0
LAYER
  5
6F
330
2
100
AcDbSymbolTableRecord
100
AcDbLayerTableRecord
  2
54
 70
     0
 62
    54
  6
CONTINUOUS
370
    -3
390
F
  0
LAYER
  5
70
330
2
100
AcDbSymbolTableRecord
100
AcDbLayerTableRecord
  2
55
 70
     0
 62
    55
  6
CONTINUOUS
370
    -3
390
F
  0
LAYER
  5
71
330
2
100
AcDbSymbolTableRecord
100
AcDbLayerTableRecord
  2
56
 70
     0
 62
    56
  6
CONTINUOUS
370
    -3
390
F
  0
LAYER
  5
72
330
2
100
AcDbSymbolTableRecord
100
AcDbLayerTableRecord
  2
57
 70
     0
 62
    57
  6
CONTINUOUS
370
    -3
390
F
  0
LAYER
  5
73
330
2
100
AcDbSymbolTableRecord
100
AcDbLayerTableRecord
  2
58
 70
     0
 62
    58
  6
CONTINUOUS
370
    -3
390
F
  0
LAYER
  5
74
330
2
100
AcDbSymbolTableRecord
100
AcDbLayerTableRecord
  2
59
 70
     0
 62
    59
  6
CONTINUOUS
370
    -3
390
F
  0
LAYER
  5
75
330
2
100
AcDbSymbolTableRecord
100
AcDbLayerTableRecord
  2
60
 70
     0
 62
    60
  6
CONTINUOUS
370
    -3
390
F
  0
LAYER
  5
76
330
2
100
AcDbSymbolTableRecord
100
AcDbLayerTableRecord
  2
61
 70
     0
 62
    61
  6
CONTINUOUS
370
    -3
390
F
  0
LAYER
  5
77
330
2
100
AcDbSymbolTableRecord
100
AcDbLayerTableRecord
  2
62
 70
     0
 62
    62
  6
CONTINUOUS
370
    -3
390
F
  0
LAYER
  5
78
330
2
100
AcDbSymbolTableRecord
100
AcDbLayerTableRecord
  2
63
 70
     0
 62
    63
  6
CONTINUOUS
370
    -3
390
F
  0
LAYER
  5
79
330
2
100
AcDbSymbolTableRecord
100
AcDbLayerTableRecord
  2
64
 70
     0
 62
    64
  6
CONTINUOUS
370
    -3
390
F
  0
LAYER
  5
7A
330
2
100
AcDbSymbolTableRecord
100
AcDbLayerTableRecord
  2
65
 70
     0
 62
    65
  6
CONTINUOUS
370
    -3
390
F
  0
LAYER
  5
7B
330
2
100
AcDbSymbolTableRecord
100
AcDbLayerTableRecord
  2
66
 70
     0
 62
    66
  6
CONTINUOUS
370
    -3
390
F
  0
LAYER
  5
7C
330
2
100
AcDbSymbolTableRecord
100
AcDbLayerTableRecord
  2
67
 70
     0
 62
    67
  6
CONTINUOUS
370
    -3
390
F
  0
LAYER
  5
7D
330
2
100
AcDbSymbolTableRecord
100
AcDbLayerTableRecord
  2
68
 70
     0
 62
    68
  6
CONTINUOUS
370
    -3
390
F
  0
LAYER
  5
7E
330
2
100
AcDbSymbolTableRecord
100
AcDbLayerTableRecord
  2
69
 70
     0
 62
    69
  6
CONTINUOUS
370
    -3
390
F
  0
LAYER
  5
7F
330
2
100
AcDbSymbolTableRecord
100
AcDbLayerTableRecord
  2
70
 70
     0
 62
    70
  6
CONTINUOUS
370
    -3
390
F
  0
LAYER
  5
80
330
2
100
AcDbSymbolTableRecord
100
AcDbLayerTableRecord
  2
71
 70
     0
 62
    71
  6
CONTINUOUS
370
    -3
390
F
  0
LAYER
  5
81
330
2
100
AcDbSymbolTableRecord
100
AcDbLayerTableRecord
  2
72
 70
     0
 62
    72
  6
CONTINUOUS
370
    -3
390
F
  0
LAYER
  5
82
330
2
100
AcDbSymbolTableRecord
100
AcDbLayerTableRecord
  2
73
 70
     0
 62
    73
  6
CONTINUOUS
370
    -3
390
F
  0
LAYER
  5
83
330
2
100
AcDbSymbolTableRecord
100
AcDbLayerTableRecord
  2
74
 70
     0
 62
    74
  6
CONTINUOUS
370
    -3
390
F
  0
LAYER
  5
84
330
2
100
AcDbSymbolTableRecord
100
AcDbLayerTableRecord
  2
75
 70
     0
 62
    75
  6
CONTINUOUS
370
    -3
390
F
  0
LAYER
  5
85
330
2
100
AcDbSymbolTableRecord
100
AcDbLayerTableRecord
  2
76
 70
     0
 62
    76
  6
CONTINUOUS
370
    -3
390
F
  0
LAYER
  5
86
330
2
100
AcDbSymbolTableRecord
100
AcDbLayerTableRecord
  2
77
 70
     0
 62
    77
  6
CONTINUOUS
370
    -3
390
F
  0
LAYER
  5
87
330
2
100
AcDbSymbolTableRecord
100
AcDbLayerTableRecord
  2
78
 70
     0
 62
    78
  6
CONTINUOUS
370
    -3
390
F
  0
LAYER
  5
88
330
2
100
AcDbSymbolTableRecord
100
AcDbLayerTableRecord
  2
79
 70
     0
 62
    79
  6
CONTINUOUS
370
    -3
390
F
  0
LAYER
  5
89
330
2
100
AcDbSymbolTableRecord
100
AcDbLayerTableRecord
  2
80
 70
     0
 62
    80
  6
CONTINUOUS
370
    -3
390
F
  0
LAYER
  5
8A
330
2
100
AcDbSymbolTableRecord
100
AcDbLayerTableRecord
  2
81
 70
     0
 62
    81
  6
CONTINUOUS
370
    -3
390
F
  0
LAYER
  5
8B
330
2
100
AcDbSymbolTableRecord
100
AcDbLayerTableRecord
  2
82
 70
     0
 62
    82
  6
CONTINUOUS
370
    -3
390
F
  0
LAYER
  5
8C
330
2
100
AcDbSymbolTableRecord
100
AcDbLayerTableRecord
  2
83
 70
     0
 62
    83
  6
CONTINUOUS
370
    -3
390
F
  0
LAYER
  5
8D
330
2
100
AcDbSymbolTableRecord
100
AcDbLayerTableRecord
  2
84
 70
     0
 62
    84
  6
CONTINUOUS
370
    -3
390
F
  0
LAYER
  5
8E
330
2
100
AcDbSymbolTableRecord
100
AcDbLayerTableRecord
  2
85
 70
     0
 62
    85
  6
CONTINUOUS
370
    -3
390
F
  0
LAYER
  5
8F
330
2
100
AcDbSymbolTableRecord
100
AcDbLayerTableRecord
  2
86
 70
     0
 62
    86
  6
CONTINUOUS
370
    -3
390
F
  0
LAYER
  5
90
330
2
100
AcDbSymbolTableRecord
100
AcDbLayerTableRecord
  2
87
 70
     0
 62
    87
  6
CONTINUOUS
370
    -3
390
F
  0
LAYER
  5
91
330
2
100
AcDbSymbolTableRecord
100
AcDbLayerTableRecord
  2
88
 70
     0
 62
    88
  6
CONTINUOUS
370
    -3
390
F
  0
LAYER
  5
92
330
2
100
AcDbSymbolTableRecord
100
AcDbLayerTableRecord
  2
89
 70
     0
 62
    89
  6
CONTINUOUS
370
    -3
390
F
  0
LAYER
  5
93
330
2
100
AcDbSymbolTableRecord
100
AcDbLayerTableRecord
  2
90
 70
     0
 62
    90
  6
CONTINUOUS
370
    -3
390
F
  0
LAYER
  5
94
330
2
100
AcDbSymbolTableRecord
100
AcDbLayerTableRecord
  2
91
 70
     0
 62
    91
  6
CONTINUOUS
370
    -3
390
F
  0
LAYER
  5
95
330
2
100
AcDbSymbolTableRecord
100
AcDbLayerTableRecord
  2
92
 70
     0
 62
    92
  6
CONTINUOUS
370
    -3
390
F
  0
LAYER
  5
96
330
2
100
AcDbSymbolTableRecord
100
AcDbLayerTableRecord
  2
93
 70
     0
 62
    93
  6
CONTINUOUS
370
    -3
390
F
  0
LAYER
  5
97
330
2
100
AcDbSymbolTableRecord
100
AcDbLayerTableRecord
  2
94
 70
     0
 62
    94
  6
CONTINUOUS
370
    -3
390
F
  0
LAYER
  5
98
330
2
100
AcDbSymbolTableRecord
100
AcDbLayerTableRecord
  2
95
 70
     0
 62
    95
  6
CONTINUOUS
370
    -3
390
F
  0
LAYER
  5
99
330
2
100
AcDbSymbolTableRecord
100
AcDbLayerTableRecord
  2
96
 70
     0
 62
    96
  6
CONTINUOUS
370
    -3
390
F
  0
LAYER
  5
9A
330
2
100
AcDbSymbolTableRecord
100
AcDbLayerTableRecord
  2
97
 70
     0
 62
    97
  6
CONTINUOUS
370
    -3
390
F
  0
LAYER
  5
9B
330
2
100
AcDbSymbolTableRecord
100
AcDbLayerTableRecord
  2
98
 70
     0
 62
    98
  6
CONTINUOUS
370
    -3
390
F
  0
LAYER
  5
9C
330
2
100
AcDbSymbolTableRecord
100
AcDbLayerTableRecord
  2
99
 70
     0
 62
    99
  6
CONTINUOUS
370
    -3
390
F
  0
LAYER
  5
9D
330
2
100
AcDbSymbolTableRecord
100
AcDbLayerTableRecord
  2
100
 70
     0
 62
   100
  6
CONTINUOUS
370
    -3
390
F
  0
LAYER
  5
9E
330
2
100
AcDbSymbolTableRecord
100
AcDbLayerTableRecord
  2
101
 70
     0
 62
   101
  6
CONTINUOUS
370
    -3
390
F
  0
LAYER
  5
9F
330
2
100
AcDbSymbolTableRecord
100
AcDbLayerTableRecord
  2
102
 70
     0
 62
   102
  6
CONTINUOUS
370
    -3
390
F
  0
LAYER
  5
A0
330
2
100
AcDbSymbolTableRecord
100
AcDbLayerTableRecord
  2
103
 70
     0
 62
   103
  6
CONTINUOUS
370
    -3
390
F
  0
LAYER
  5
A1
330
2
100
AcDbSymbolTableRecord
100
AcDbLayerTableRecord
  2
104
 70
     0
 62
   104
  6
CONTINUOUS
370
    -3
390
F
  0
LAYER
  5
A2
330
2
100
AcDbSymbolTableRecord
100
AcDbLayerTableRecord
  2
105
 70
     0
 62
   105
  6
CONTINUOUS
370
    -3
390
F
  0
LAYER
  5
A3
330
2
100
AcDbSymbolTableRecord
100
AcDbLayerTableRecord
  2
106
 70
     0
 62
   106
  6
CONTINUOUS
370
    -3
390
F
  0
LAYER
  5
A4
330
2
100
AcDbSymbolTableRecord
100
AcDbLayerTableRecord
  2
107
 70
     0
 62
   107
  6
CONTINUOUS
370
    -3
390
F
  0
LAYER
  5
A5
330
2
100
AcDbSymbolTableRecord
100
AcDbLayerTableRecord
  2
108
 70
     0
 62
   108
  6
CONTINUOUS
370
    -3
390
F
  0
LAYER
  5
A6
330
2
100
AcDbSymbolTableRecord
100
AcDbLayerTableRecord
  2
109
 70
     0
 62
   109
  6
CONTINUOUS
370
    -3
390
F
  0
LAYER
  5
A7
330
2
100
AcDbSymbolTableRecord
100
AcDbLayerTableRecord
  2
110
 70
     0
 62
   110
  6
CONTINUOUS
370
    -3
390
F
  0
LAYER
  5
A8
330
2
100
AcDbSymbolTableRecord
100
AcDbLayerTableRecord
  2
111
 70
     0
 62
   111
  6
CONTINUOUS
370
    -3
390
F
  0
LAYER
  5
A9
330
2
100
AcDbSymbolTableRecord
100
AcDbLayerTableRecord
  2
112
 70
     0
 62
   112
  6
CONTINUOUS
370
    -3
390
F
  0
LAYER
  5
AA
330
2
100
AcDbSymbolTableRecord
100
AcDbLayerTableRecord
  2
113
 70
     0
 62
   113
  6
CONTINUOUS
370
    -3
390
F
  0
LAYER
  5
AB
330
2
100
AcDbSymbolTableRecord
100
AcDbLayerTableRecord
  2
114
 70
     0
 62
   114
  6
CONTINUOUS
370
    -3
390
F
  0
LAYER
  5
AC
330
2
100
AcDbSymbolTableRecord
100
AcDbLayerTableRecord
  2
115
 70
     0
 62
   115
  6
CONTINUOUS
370
    -3
390
F
  0
LAYER
  5
AD
330
2
100
AcDbSymbolTableRecord
100
AcDbLayerTableRecord
  2
116
 70
     0
 62
   116
  6
CONTINUOUS
370
    -3
390
F
  0
LAYER
  5
AE
330
2
100
AcDbSymbolTableRecord
100
AcDbLayerTableRecord
  2
117
 70
     0
 62
   117
  6
CONTINUOUS
370
    -3
390
F
  0
LAYER
  5
AF
330
2
100
AcDbSymbolTableRecord
100
AcDbLayerTableRecord
  2
118
 70
     0
 62
   118
  6
CONTINUOUS
370
    -3
390
F
  0
LAYER
  5
B0
330
2
100
AcDbSymbolTableRecord
100
AcDbLayerTableRecord
  2
119
 70
     0
 62
   119
  6
CONTINUOUS
370
    -3
390
F
  0
LAYER
  5
B1
330
2
100
AcDbSymbolTableRecord
100
AcDbLayerTableRecord
  2
120
 70
     0
 62
   120
  6
CONTINUOUS
370
    -3
390
F
  0
LAYER
  5
B2
330
2
100
AcDbSymbolTableRecord
100
AcDbLayerTableRecord
  2
121
 70
     0
 62
   121
  6
CONTINUOUS
370
    -3
390
F
  0
LAYER
  5
B3
330
2
100
AcDbSymbolTableRecord
100
AcDbLayerTableRecord
  2
122
 70
     0
 62
   122
  6
CONTINUOUS
370
    -3
390
F
  0
LAYER
  5
B4
330
2
100
AcDbSymbolTableRecord
100
AcDbLayerTableRecord
  2
123
 70
     0
 62
   123
  6
CONTINUOUS
370
    -3
390
F
  0
LAYER
  5
B5
330
2
100
AcDbSymbolTableRecord
100
AcDbLayerTableRecord
  2
124
 70
     0
 62
   124
  6
CONTINUOUS
370
    -3
390
F
  0
LAYER
  5
B6
330
2
100
AcDbSymbolTableRecord
100
AcDbLayerTableRecord
  2
125
 70
     0
 62
   125
  6
CONTINUOUS
370
    -3
390
F
  0
LAYER
  5
B7
330
2
100
AcDbSymbolTableRecord
100
AcDbLayerTableRecord
  2
126
 70
     0
 62
   126
  6
CONTINUOUS
370
    -3
390
F
  0
LAYER
  5
B8
330
2
100
AcDbSymbolTableRecord
100
AcDbLayerTableRecord
  2
127
 70
     0
 62
   127
  6
CONTINUOUS
370
    -3
390
F
  0
LAYER
  5
B9
330
2
100
AcDbSymbolTableRecord
100
AcDbLayerTableRecord
  2
128
 70
     0
 62
   128
  6
CONTINUOUS
370
    -3
390
F
  0
LAYER
  5
BA
330
2
100
AcDbSymbolTableRecord
100
AcDbLayerTableRecord
  2
129
 70
     0
 62
   129
  6
CONTINUOUS
370
    -3
390
F
  0
LAYER
  5
BB
330
2
100
AcDbSymbolTableRecord
100
AcDbLayerTableRecord
  2
130
 70
     0
 62
   130
  6
CONTINUOUS
370
    -3
390
F
  0
LAYER
  5
BC
330
2
100
AcDbSymbolTableRecord
100
AcDbLayerTableRecord
  2
131
 70
     0
 62
   131
  6
CONTINUOUS
370
    -3
390
F
  0
LAYER
  5
BD
330
2
100
AcDbSymbolTableRecord
100
AcDbLayerTableRecord
  2
132
 70
     0
 62
   132
  6
CONTINUOUS
370
    -3
390
F
  0
LAYER
  5
BE
330
2
100
AcDbSymbolTableRecord
100
AcDbLayerTableRecord
  2
133
 70
     0
 62
   133
  6
CONTINUOUS
370
    -3
390
F
  0
LAYER
  5
BF
330
2
100
AcDbSymbolTableRecord
100
AcDbLayerTableRecord
  2
134
 70
     0
 62
   134
  6
CONTINUOUS
370
    -3
390
F
  0
LAYER
  5
C0
330
2
100
AcDbSymbolTableRecord
100
AcDbLayerTableRecord
  2
135
 70
     0
 62
   135
  6
CONTINUOUS
370
    -3
390
F
  0
LAYER
  5
C1
330
2
100
AcDbSymbolTableRecord
100
AcDbLayerTableRecord
  2
136
 70
     0
 62
   136
  6
CONTINUOUS
370
    -3
390
F
  0
LAYER
  5
C2
330
2
100
AcDbSymbolTableRecord
100
AcDbLayerTableRecord
  2
137
 70
     0
 62
   137
  6
CONTINUOUS
370
    -3
390
F
  0
LAYER
  5
C3
330
2
100
AcDbSymbolTableRecord
100
AcDbLayerTableRecord
  2
138
 70
     0
 62
   138
  6
CONTINUOUS
370
    -3
390
F
  0
LAYER
  5
C4
330
2
100
AcDbSymbolTableRecord
100
AcDbLayerTableRecord
  2
139
 70
     0
 62
   139
  6
CONTINUOUS
370
    -3
390
F
  0
LAYER
  5
C5
330
2
100
AcDbSymbolTableRecord
100
AcDbLayerTableRecord
  2
140
 70
     0
 62
   140
  6
CONTINUOUS
370
    -3
390
F
  0
LAYER
  5
C6
330
2
100
AcDbSymbolTableRecord
100
AcDbLayerTableRecord
  2
141
 70
     0
 62
   141
  6
CONTINUOUS
370
    -3
390
F
  0
LAYER
  5
C7
330
2
100
AcDbSymbolTableRecord
100
AcDbLayerTableRecord
  2
142
 70
     0
 62
   142
  6
CONTINUOUS
370
    -3
390
F
  0
LAYER
  5
C8
330
2
100
AcDbSymbolTableRecord
100
AcDbLayerTableRecord
  2
143
 70
     0
 62
   143
  6
CONTINUOUS
370
    -3
390
F
  0
LAYER
  5
C9
330
2
100
AcDbSymbolTableRecord
100
AcDbLayerTableRecord
  2
144
 70
     0
 62
   144
  6
CONTINUOUS
370
    -3
390
F
  0
LAYER
  5
CA
330
2
100
AcDbSymbolTableRecord
100
AcDbLayerTableRecord
  2
145
 70
     0
 62
   145
  6
CONTINUOUS
370
    -3
390
F
  0
LAYER
  5
CB
330
2
100
AcDbSymbolTableRecord
100
AcDbLayerTableRecord
  2
146
 70
     0
 62
   146
  6
CONTINUOUS
370
    -3
390
F
  0
LAYER
  5
CC
330
2
100
AcDbSymbolTableRecord
100
AcDbLayerTableRecord
  2
147
 70
     0
 62
   147
  6
CONTINUOUS
370
    -3
390
F
  0
LAYER
  5
CD
330
2
100
AcDbSymbolTableRecord
100
AcDbLayerTableRecord
  2
148
 70
     0
 62
   148
  6
CONTINUOUS
370
    -3
390
F
  0
LAYER
  5
CE
330
2
100
AcDbSymbolTableRecord
100
AcDbLayerTableRecord
  2
149
 70
     0
 62
   149
  6
CONTINUOUS
370
    -3
390
F
  0
LAYER
  5
CF
330
2
100
AcDbSymbolTableRecord
100
AcDbLayerTableRecord
  2
150
 70
     0
 62
   150
  6
CONTINUOUS
370
    -3
390
F
  0
LAYER
  5
D0
330
2
100
AcDbSymbolTableRecord
100
AcDbLayerTableRecord
  2
151
 70
     0
 62
   151
  6
CONTINUOUS
370
    -3
390
F
  0
LAYER
  5
D1
330
2
100
AcDbSymbolTableRecord
100
AcDbLayerTableRecord
  2
152
 70
     0
 62
   152
  6
CONTINUOUS
370
    -3
390
F
  0
LAYER
  5
D2
330
2
100
AcDbSymbolTableRecord
100
AcDbLayerTableRecord
  2
153
 70
     0
 62
   153
  6
CONTINUOUS
370
    -3
390
F
  0
LAYER
  5
D3
330
2
100
AcDbSymbolTableRecord
100
AcDbLayerTableRecord
  2
154
 70
     0
 62
   154
  6
CONTINUOUS
370
    -3
390
F
  0
LAYER
  5
D4
330
2
100
AcDbSymbolTableRecord
100
AcDbLayerTableRecord
  2
155
 70
     0
 62
   155
  6
CONTINUOUS
370
    -3
390
F
  0
LAYER
  5
D5
330
2
100
AcDbSymbolTableRecord
100
AcDbLayerTableRecord
  2
156
 70
     0
 62
   156
  6
CONTINUOUS
370
    -3
390
F
  0
LAYER
  5
D6
330
2
100
AcDbSymbolTableRecord
100
AcDbLayerTableRecord
  2
157
 70
     0
 62
   157
  6
CONTINUOUS
370
    -3
390
F
  0
LAYER
  5
D7
330
2
100
AcDbSymbolTableRecord
100
AcDbLayerTableRecord
  2
158
 70
     0
 62
   158
  6
CONTINUOUS
370
    -3
390
F
  0
LAYER
  5
D8
330
2
100
AcDbSymbolTableRecord
100
AcDbLayerTableRecord
  2
159
 70
     0
 62
   159
  6
CONTINUOUS
370
    -3
390
F
  0
LAYER
  5
D9
330
2
100
AcDbSymbolTableRecord
100
AcDbLayerTableRecord
  2
160
 70
     0
 62
   160
  6
CONTINUOUS
370
    -3
390
F
  0
LAYER
  5
DA
330
2
100
AcDbSymbolTableRecord
100
AcDbLayerTableRecord
  2
161
 70
     0
 62
   161
  6
CONTINUOUS
370
    -3
390
F
  0
LAYER
  5
DB
330
2
100
AcDbSymbolTableRecord
100
AcDbLayerTableRecord
  2
162
 70
     0
 62
   162
  6
CONTINUOUS
370
    -3
390
F
  0
LAYER
  5
DC
330
2
100
AcDbSymbolTableRecord
100
AcDbLayerTableRecord
  2
163
 70
     0
 62
   163
  6
CONTINUOUS
370
    -3
390
F
  0
LAYER
  5
DD
330
2
100
AcDbSymbolTableRecord
100
AcDbLayerTableRecord
  2
164
 70
     0
 62
   164
  6
CONTINUOUS
370
    -3
390
F
  0
LAYER
  5
DE
330
2
100
AcDbSymbolTableRecord
100
AcDbLayerTableRecord
  2
165
 70
     0
 62
   165
  6
CONTINUOUS
370
    -3
390
F
  0
LAYER
  5
DF
330
2
100
AcDbSymbolTableRecord
100
AcDbLayerTableRecord
  2
166
 70
     0
 62
   166
  6
CONTINUOUS
370
    -3
390
F
  0
LAYER
  5
E0
330
2
100
AcDbSymbolTableRecord
100
AcDbLayerTableRecord
  2
167
 70
     0
 62
   167
  6
CONTINUOUS
370
    -3
390
F
  0
LAYER
  5
E1
330
2
100
AcDbSymbolTableRecord
100
AcDbLayerTableRecord
  2
168
 70
     0
 62
   168
  6
CONTINUOUS
370
    -3
390
F
  0
LAYER
  5
E2
330
2
100
AcDbSymbolTableRecord
100
AcDbLayerTableRecord
  2
169
 70
     0
 62
   169
  6
CONTINUOUS
370
    -3
390
F
  0
LAYER
  5
E3
330
2
100
AcDbSymbolTableRecord
100
AcDbLayerTableRecord
  2
170
 70
     0
 62
   170
  6
CONTINUOUS
370
    -3
390
F
  0
LAYER
  5
E4
330
2
100
AcDbSymbolTableRecord
100
AcDbLayerTableRecord
  2
171
 70
     0
 62
   171
  6
CONTINUOUS
370
    -3
390
F
  0
LAYER
  5
E5
330
2
100
AcDbSymbolTableRecord
100
AcDbLayerTableRecord
  2
172
 70
     0
 62
   172
  6
CONTINUOUS
370
    -3
390
F
  0
LAYER
  5
E6
330
2
100
AcDbSymbolTableRecord
100
AcDbLayerTableRecord
  2
173
 70
     0
 62
   173
  6
CONTINUOUS
370
    -3
390
F
  0
LAYER
  5
E7
330
2
100
AcDbSymbolTableRecord
100
AcDbLayerTableRecord
  2
174
 70
     0
 62
   174
  6
CONTINUOUS
370
    -3
390
F
  0
LAYER
  5
E8
330
2
100
AcDbSymbolTableRecord
100
AcDbLayerTableRecord
  2
175
 70
     0
 62
   175
  6
CONTINUOUS
370
    -3
390
F
  0
LAYER
  5
E9
330
2
100
AcDbSymbolTableRecord
100
AcDbLayerTableRecord
  2
176
 70
     0
 62
   176
  6
CONTINUOUS
370
    -3
390
F
  0
LAYER
  5
EA
330
2
100
AcDbSymbolTableRecord
100
AcDbLayerTableRecord
  2
177
 70
     0
 62
   177
  6
CONTINUOUS
370
    -3
390
F
  0
LAYER
  5
EB
330
2
100
AcDbSymbolTableRecord
100
AcDbLayerTableRecord
  2
178
 70
     0
 62
   178
  6
CONTINUOUS
370
    -3
390
F
  0
LAYER
  5
EC
330
2
100
AcDbSymbolTableRecord
100
AcDbLayerTableRecord
  2
179
 70
     0
 62
   179
  6
CONTINUOUS
370
    -3
390
F
  0
LAYER
  5
ED
330
2
100
AcDbSymbolTableRecord
100
AcDbLayerTableRecord
  2
180
 70
     0
 62
   180
  6
CONTINUOUS
370
    -3
390
F
  0
LAYER
  5
EE
330
2
100
AcDbSymbolTableRecord
100
AcDbLayerTableRecord
  2
181
 70
     0
 62
   181
  6
CONTINUOUS
370
    -3
390
F
  0
LAYER
  5
EF
330
2
100
AcDbSymbolTableRecord
100
AcDbLayerTableRecord
  2
182
 70
     0
 62
   182
  6
CONTINUOUS
370
    -3
390
F
  0
LAYER
  5
F0
330
2
100
AcDbSymbolTableRecord
100
AcDbLayerTableRecord
  2
183
 70
     0
 62
   183
  6
CONTINUOUS
370
    -3
390
F
  0
LAYER
  5
F1
330
2
100
AcDbSymbolTableRecord
100
AcDbLayerTableRecord
  2
184
 70
     0
 62
   184
  6
CONTINUOUS
370
    -3
390
F
  0
LAYER
  5
F2
330
2
100
AcDbSymbolTableRecord
100
AcDbLayerTableRecord
  2
185
 70
     0
 62
   185
  6
CONTINUOUS
370
    -3
390
F
  0
LAYER
  5
F3
330
2
100
AcDbSymbolTableRecord
100
AcDbLayerTableRecord
  2
186
 70
     0
 62
   186
  6
CONTINUOUS
370
    -3
390
F
  0
LAYER
  5
F4
330
2
100
AcDbSymbolTableRecord
100
AcDbLayerTableRecord
  2
187
 70
     0
 62
   187
  6
CONTINUOUS
370
    -3
390
F
  0
LAYER
  5
F5
330
2
100
AcDbSymbolTableRecord
100
AcDbLayerTableRecord
  2
188
 70
     0
 62
   188
  6
CONTINUOUS
370
    -3
390
F
  0
LAYER
  5
F6
330
2
100
AcDbSymbolTableRecord
100
AcDbLayerTableRecord
  2
189
 70
     0
 62
   189
  6
CONTINUOUS
370
    -3
390
F
  0
LAYER
  5
F7
330
2
100
AcDbSymbolTableRecord
100
AcDbLayerTableRecord
  2
190
 70
     0
 62
   190
  6
CONTINUOUS
370
    -3
390
F
  0
LAYER
  5
F8
330
2
100
AcDbSymbolTableRecord
100
AcDbLayerTableRecord
  2
191
 70
     0
 62
   191
  6
CONTINUOUS
370
    -3
390
F
  0
LAYER
  5
F9
330
2
100
AcDbSymbolTableRecord
100
AcDbLayerTableRecord
  2
192
 70
     0
 62
   192
  6
CONTINUOUS
370
    -3
390
F
  0
LAYER
  5
FA
330
2
100
AcDbSymbolTableRecord
100
AcDbLayerTableRecord
  2
193
 70
     0
 62
   193
  6
CONTINUOUS
370
    -3
390
F
  0
LAYER
  5
FB
330
2
100
AcDbSymbolTableRecord
100
AcDbLayerTableRecord
  2
194
 70
     0
 62
   194
  6
CONTINUOUS
370
    -3
390
F
  0
LAYER
  5
FC
330
2
100
AcDbSymbolTableRecord
100
AcDbLayerTableRecord
  2
195
 70
     0
 62
   195
  6
CONTINUOUS
370
    -3
390
F
  0
LAYER
  5
FD
330
2
100
AcDbSymbolTableRecord
100
AcDbLayerTableRecord
  2
196
 70
     0
 62
   196
  6
CONTINUOUS
370
    -3
390
F
  0
LAYER
  5
FE
330
2
100
AcDbSymbolTableRecord
100
AcDbLayerTableRecord
  2
197
 70
     0
 62
   197
  6
CONTINUOUS
370
    -3
390
F
  0
LAYER
  5
FF
330
2
100
AcDbSymbolTableRecord
100
AcDbLayerTableRecord
  2
198
 70
     0
 62
   198
  6
CONTINUOUS
370
    -3
390
F
  0
LAYER
  5
100
330
2
100
AcDbSymbolTableRecord
100
AcDbLayerTableRecord
  2
199
 70
     0
 62
   199
  6
CONTINUOUS
370
    -3
390
F
  0
LAYER
  5
101
330
2
100
AcDbSymbolTableRecord
100
AcDbLayerTableRecord
  2
200
 70
     0
 62
   200
  6
CONTINUOUS
370
    -3
390
F
  0
LAYER
  5
102
330
2
100
AcDbSymbolTableRecord
100
AcDbLayerTableRecord
  2
201
 70
     0
 62
   201
  6
CONTINUOUS
370
    -3
390
F
  0
LAYER
  5
103
330
2
100
AcDbSymbolTableRecord
100
AcDbLayerTableRecord
  2
202
 70
     0
 62
   202
  6
CONTINUOUS
370
    -3
390
F
  0
LAYER
  5
104
330
2
100
AcDbSymbolTableRecord
100
AcDbLayerTableRecord
  2
203
 70
     0
 62
   203
  6
CONTINUOUS
370
    -3
390
F
  0
LAYER
  5
105
330
2
100
AcDbSymbolTableRecord
100
AcDbLayerTableRecord
  2
204
 70
     0
 62
   204
  6
CONTINUOUS
370
    -3
390
F
  0
LAYER
  5
106
330
2
100
AcDbSymbolTableRecord
100
AcDbLayerTableRecord
  2
205
 70
     0
 62
   205
  6
CONTINUOUS
370
    -3
390
F
  0
LAYER
  5
107
330
2
100
AcDbSymbolTableRecord
100
AcDbLayerTableRecord
  2
206
 70
     0
 62
   206
  6
CONTINUOUS
370
    -3
390
F
  0
LAYER
  5
108
330
2
100
AcDbSymbolTableRecord
100
AcDbLayerTableRecord
  2
207
 70
     0
 62
   207
  6
CONTINUOUS
370
    -3
390
F
  0
LAYER
  5
109
330
2
100
AcDbSymbolTableRecord
100
AcDbLayerTableRecord
  2
208
 70
     0
 62
   208
  6
CONTINUOUS
370
    -3
390
F
  0
LAYER
  5
10A
330
2
100
AcDbSymbolTableRecord
100
AcDbLayerTableRecord
  2
209
 70
     0
 62
   209
  6
CONTINUOUS
370
    -3
390
F
  0
LAYER
  5
10B
330
2
100
AcDbSymbolTableRecord
100
AcDbLayerTableRecord
  2
210
 70
     0
 62
   210
  6
CONTINUOUS
370
    -3
390
F
  0
LAYER
  5
10C
330
2
100
AcDbSymbolTableRecord
100
AcDbLayerTableRecord
  2
211
 70
     0
 62
   211
  6
CONTINUOUS
370
    -3
390
F
  0
LAYER
  5
10D
330
2
100
AcDbSymbolTableRecord
100
AcDbLayerTableRecord
  2
212
 70
     0
 62
   212
  6
CONTINUOUS
370
    -3
390
F
  0
LAYER
  5
10E
330
2
100
AcDbSymbolTableRecord
100
AcDbLayerTableRecord
  2
213
 70
     0
 62
   213
  6
CONTINUOUS
370
    -3
390
F
  0
LAYER
  5
10F
330
2
100
AcDbSymbolTableRecord
100
AcDbLayerTableRecord
  2
214
 70
     0
 62
   214
  6
CONTINUOUS
370
    -3
390
F
  0
LAYER
  5
110
330
2
100
AcDbSymbolTableRecord
100
AcDbLayerTableRecord
  2
215
 70
     0
 62
   215
  6
CONTINUOUS
370
    -3
390
F
  0
LAYER
  5
111
330
2
100
AcDbSymbolTableRecord
100
AcDbLayerTableRecord
  2
216
 70
     0
 62
   216
  6
CONTINUOUS
370
    -3
390
F
  0
LAYER
  5
112
330
2
100
AcDbSymbolTableRecord
100
AcDbLayerTableRecord
  2
217
 70
     0
 62
   217
  6
CONTINUOUS
370
    -3
390
F
  0
LAYER
  5
113
330
2
100
AcDbSymbolTableRecord
100
AcDbLayerTableRecord
  2
218
 70
     0
 62
   218
  6
CONTINUOUS
370
    -3
390
F
  0
LAYER
  5
114
330
2
100
AcDbSymbolTableRecord
100
AcDbLayerTableRecord
  2
219
 70
     0
 62
   219
  6
CONTINUOUS
370
    -3
390
F
  0
LAYER
  5
115
330
2
100
AcDbSymbolTableRecord
100
AcDbLayerTableRecord
  2
220
 70
     0
 62
   220
  6
CONTINUOUS
370
    -3
390
F
  0
LAYER
  5
116
330
2
100
AcDbSymbolTableRecord
100
AcDbLayerTableRecord
  2
221
 70
     0
 62
   221
  6
CONTINUOUS
370
    -3
390
F
  0
LAYER
  5
117
330
2
100
AcDbSymbolTableRecord
100
AcDbLayerTableRecord
  2
222
 70
     0
 62
   222
  6
CONTINUOUS
370
    -3
390
F
  0
LAYER
  5
118
330
2
100
AcDbSymbolTableRecord
100
AcDbLayerTableRecord
  2
223
 70
     0
 62
   223
  6
CONTINUOUS
370
    -3
390
F
  0
LAYER
  5
119
330
2
100
AcDbSymbolTableRecord
100
AcDbLayerTableRecord
  2
224
 70
     0
 62
   224
  6
CONTINUOUS
370
    -3
390
F
  0
LAYER
  5
11A
330
2
100
AcDbSymbolTableRecord
100
AcDbLayerTableRecord
  2
225
 70
     0
 62
   225
  6
CONTINUOUS
370
    -3
390
F
  0
LAYER
  5
11B
330
2
100
AcDbSymbolTableRecord
100
AcDbLayerTableRecord
  2
226
 70
     0
 62
   226
  6
CONTINUOUS
370
    -3
390
F
  0
LAYER
  5
11C
330
2
100
AcDbSymbolTableRecord
100
AcDbLayerTableRecord
  2
227
 70
     0
 62
   227
  6
CONTINUOUS
370
    -3
390
F
  0
LAYER
  5
11D
330
2
100
AcDbSymbolTableRecord
100
AcDbLayerTableRecord
  2
228
 70
     0
 62
   228
  6
CONTINUOUS
370
    -3
390
F
  0
LAYER
  5
11E
330
2
100
AcDbSymbolTableRecord
100
AcDbLayerTableRecord
  2
229
 70
     0
 62
   229
  6
CONTINUOUS
370
    -3
390
F
  0
LAYER
  5
11F
330
2
100
AcDbSymbolTableRecord
100
AcDbLayerTableRecord
  2
230
 70
     0
 62
   230
  6
CONTINUOUS
370
    -3
390
F
  0
LAYER
  5
120
330
2
100
AcDbSymbolTableRecord
100
AcDbLayerTableRecord
  2
231
 70
     0
 62
   231
  6
CONTINUOUS
370
    -3
390
F
  0
LAYER
  5
121
330
2
100
AcDbSymbolTableRecord
100
AcDbLayerTableRecord
  2
232
 70
     0
 62
   232
  6
CONTINUOUS
370
    -3
390
F
  0
LAYER
  5
122
330
2
100
AcDbSymbolTableRecord
100
AcDbLayerTableRecord
  2
233
 70
     0
 62
   233
  6
CONTINUOUS
370
    -3
390
F
  0
LAYER
  5
123
330
2
100
AcDbSymbolTableRecord
100
AcDbLayerTableRecord
  2
234
 70
     0
 62
   234
  6
CONTINUOUS
370
    -3
390
F
  0
LAYER
  5
124
330
2
100
AcDbSymbolTableRecord
100
AcDbLayerTableRecord
  2
235
 70
     0
 62
   235
  6
CONTINUOUS
370
    -3
390
F
  0
LAYER
  5
125
330
2
100
AcDbSymbolTableRecord
100
AcDbLayerTableRecord
  2
236
 70
     0
 62
   236
  6
CONTINUOUS
370
    -3
390
F
  0
LAYER
  5
126
330
2
100
AcDbSymbolTableRecord
100
AcDbLayerTableRecord
  2
237
 70
     0
 62
   237
  6
CONTINUOUS
370
    -3
390
F
  0
LAYER
  5
127
330
2
100
AcDbSymbolTableRecord
100
AcDbLayerTableRecord
  2
238
 70
     0
 62
   238
  6
CONTINUOUS
370
    -3
390
F
  0
LAYER
  5
128
330
2
100
AcDbSymbolTableRecord
100
AcDbLayerTableRecord
  2
239
 70
     0
 62
   239
  6
CONTINUOUS
370
    -3
390
F
  0
LAYER
  5
129
330
2
100
AcDbSymbolTableRecord
100
AcDbLayerTableRecord
  2
240
 70
     0
 62
   240
  6
CONTINUOUS
370
    -3
390
F
  0
LAYER
  5
12A
330
2
100
AcDbSymbolTableRecord
100
AcDbLayerTableRecord
  2
241
 70
     0
 62
   241
  6
CONTINUOUS
370
    -3
390
F
  0
LAYER
  5
12B
330
2
100
AcDbSymbolTableRecord
100
AcDbLayerTableRecord
  2
242
 70
     0
 62
   242
  6
CONTINUOUS
370
    -3
390
F
  0
LAYER
  5
12C
330
2
100
AcDbSymbolTableRecord
100
AcDbLayerTableRecord
  2
243
 70
     0
 62
   243
  6
CONTINUOUS
370
    -3
390
F
  0
LAYER
  5
12D
330
2
100
AcDbSymbolTableRecord
100
AcDbLayerTableRecord
  2
244
 70
     0
 62
   244
  6
CONTINUOUS
370
    -3
390
F
  0
LAYER
  5
12E
330
2
100
AcDbSymbolTableRecord
100
AcDbLayerTableRecord
  2
245
 70
     0
 62
   245
  6
CONTINUOUS
370
    -3
390
F
  0
LAYER
  5
12F
330
2
100
AcDbSymbolTableRecord
100
AcDbLayerTableRecord
  2
246
 70
     0
 62
   246
  6
CONTINUOUS
370
    -3
390
F
  0
LAYER
  5
130
330
2
100
AcDbSymbolTableRecord
100
AcDbLayerTableRecord
  2
247
 70
     0
 62
   247
  6
CONTINUOUS
370
    -3
390
F
  0
LAYER
  5
131
330
2
100
AcDbSymbolTableRecord
100
AcDbLayerTableRecord
  2
248
 70
     0
 62
   248
  6
CONTINUOUS
370
    -3
390
F
  0
LAYER
  5
132
330
2
100
AcDbSymbolTableRecord
100
AcDbLayerTableRecord
  2
249
 70
     0
 62
   249
  6
CONTINUOUS
370
    -3
390
F
  0
LAYER
  5
133
330
2
100
AcDbSymbolTableRecord
100
AcDbLayerTableRecord
  2
250
 70
     0
 62
   250
  6
CONTINUOUS
370
    -3
390
F
  0
LAYER
  5
134
330
2
100
AcDbSymbolTableRecord
100
AcDbLayerTableRecord
  2
251
 70
     0
 62
   251
  6
CONTINUOUS
370
    -3
390
F
  0
LAYER
  5
135
330
2
100
AcDbSymbolTableRecord
100
AcDbLayerTableRecord
  2
252
 70
     0
 62
   252
  6
CONTINUOUS
370
    -3
390
F
  0
LAYER
  5
136
330
2
100
AcDbSymbolTableRecord
100
AcDbLayerTableRecord
  2
253
 70
     0
 62
   253
  6
CONTINUOUS
370
    -3
390
F
  0
LAYER
  5
137
330
2
100
AcDbSymbolTableRecord
100
AcDbLayerTableRecord
  2
254
 70
     0
 62
   254
  6
CONTINUOUS
370
    -3
390
F
  0
LAYER
  5
138
330
2
100
AcDbSymbolTableRecord
100
AcDbLayerTableRecord
  2
255
 70
     0
 62
   255
  6
CONTINUOUS
370
    -3
390
F
  0
LAYER
  5
2576
330
2
100
AcDbSymbolTableRecord
100
AcDbLayerTableRecord
  2
Defpoints
 70
     0
 62
     7
  6
CONTINUOUS
290
     0
370
    -3
390
F
  0
ENDTAB
  0
TABLE
  2
STYLE
  5
3
330
0
100
AcDbSymbolTable
 70
     1
  0
STYLE
  5
11
330
3
100
AcDbSymbolTableRecord
100
AcDbTextStyleTableRecord
  2
STANDARD
 70
     0
 40
0.0
 41
1.0
 50
0.0
 71
     0
 42
0.2
  3
txt
  4

  0
ENDTAB
  0
TABLE
  2
VIEW
  5
6
330
0
100
AcDbSymbolTable
 70
     0
  0
ENDTAB
  0
TABLE
  2
UCS
  5
7
330
0
100
AcDbSymbolTable
 70
     0
  0
ENDTAB
  0
TABLE
  2
APPID
  5
9
330
0
100
AcDbSymbolTable
 70
     1
  0
APPID
  5
12
330
9
100
AcDbSymbolTableRecord
100
AcDbRegAppTableRecord
  2
ACAD
 70
     0
  0
ENDTAB
  0
TABLE
  2
DIMSTYLE
  5
A
330
0
100
AcDbSymbolTable
 70
     1
100
AcDbDimStyleTable
 71
     1
340
2571
  0
DIMSTYLE
105
2571
330
A
100
AcDbSymbolTableRecord
100
AcDbDimStyleTableRecord
  2
Standard
 70
     0
340
11
  0
ENDTAB
  0
TABLE
  2
BLOCK_RECORD
  5
1
330
0
100
AcDbSymbolTable
 70
     2
  0
BLOCK_RECORD
  5
1E
330
1
100
AcDbSymbolTableRecord
100
AcDbBlockTableRecord
  2
*Model_Space
340
21
  0
BLOCK_RECORD
  5
1A
330
1
100
AcDbSymbolTableRecord
100
AcDbBlockTableRecord
  2
*Paper_Space
340
1D
  0
BLOCK_RECORD
  5
2577
330
1
100
AcDbSymbolTableRecord
100
AcDbBlockTableRecord
  2
*D0
340
0
  0
BLOCK_RECORD
  5
2585
330
1
100
AcDbSymbolTableRecord
100
AcDbBlockTableRecord
  2
*D1
340
0
  0
ENDTAB
  0
ENDSEC
  0
SECTION
  2
BLOCKS
  0
BLOCK
  5
13B
330
1E
100
AcDbEntity
  8
0
100
AcDbBlockBegin
  2
*Model_Space
 70
     0
 10
0.0
 20
0.0
 30
0.0
  3
*Model_Space
  1

  0
ENDBLK
  5
13C
330
1E
100
AcDbEntity
  8
0
100
AcDbBlockEnd
  0
BLOCK
  5
139
330
1A
100
AcDbEntity
 67
     1
  8
0
100
AcDbBlockBegin
  2
*Paper_Space
 70
     0
 10
0.0
 20
0.0
 30
0.0
  3
*Paper_Space
  1

  0
ENDBLK
  5
13A
330
1A
100
AcDbEntity
 67
     1
  8
0
100
AcDbBlockEnd
  0
BLOCK
  5
2582
330
2577
100
AcDbEntity
  8
0
100
AcDbBlockBegin
  2
*D0
 70
     1
 10
0.0
 20
0.0
 30
0.0
  3
*D0
  1

  0
LINE
  5
2578
330
2577
100
AcDbEntity
  8
0
 62
     0
370
    -2
100
AcDbLine
 10
9.669291338582677
 20
12.08415354330708
 30
0.0
 11
9.669291338582677
 21
13.01804037616408
 31
0.0
  0
LINE
  5
2579
330
2577
100
AcDbEntity
  8
0
 62
     0
370
    -2
100
AcDbLine
 10
11.16929133858267
 20
12.08415354330708
 30
0.0
 11
11.16929133858267
 21
13.01804037616408
 31
0.0
  0
LINE
  5
257A
330
2577
100
AcDbEntity
  8
0
 62
     0
370
    -2
100
AcDbLine
 10
9.849291338582677
 20
12.83804037616408
 30
0.0
 11
9.954291338582677
 21
12.83804037616408
 31
0.0
  0
LINE
  5
257B
330
2577
100
AcDbEntity
  8
0
 62
     0
370
    -2
100
AcDbLine
 10
10.98929133858267
 20
12.83804037616408
 30
0.0
 11
10.88429133858267
 21
12.83804037616408
 31
0.0
  0
SOLID
  5
257C
330
2577
100
AcDbEntity
  8
0
 62
     0
100
AcDbTrace
 10
9.849291338582677
 20
12.86804037616408
 30
0.0
 11
9.849291338582677
 21
12.80804037616408
 31
0.0
 12
9.669291338582677
 22
12.83804037616408
 32
0.0
 13
9.669291338582677
 23
12.83804037616408
 33
0.0
  0
SOLID
  5
257D
330
2577
100
AcDbEntity
  8
0
 62
     0
100
AcDbTrace
 10
10.98929133858267
 20
12.86804037616408
 30
0.0
 11
10.98929133858267
 21
12.80804037616408
 31
0.0
 12
11.16929133858267
 22
12.83804037616408
 32
0.0
 13
11.16929133858267
 23
12.83804037616408
 33
0.0
  0
MTEXT
  5
257E
330
2577
100
AcDbEntity
  8
0
 62
     0
100
AcDbMText
 10
10.41929133858267
 20
12.83804037616408
 30
0.0
 40
0.18
 41
0.0
 71
     5
 72
     1
  1
\A1;1.5000
 73
     1
 44
1.0
  0
POINT
  5
257F
330
2577
100
AcDbEntity
  8
Defpoints
 62
     0
100
AcDbPoint
 10
9.669291338582677
 20
12.02165354330708
 30
0.0
  0
POINT
  5
2580
330
2577
100
AcDbEntity
  8
Defpoints
 62
     0
100
AcDbPoint
 10
11.16929133858267
 20
12.02165354330708
 30
0.0
  0
POINT
  5
2581
330
2577
100
AcDbEntity
  8
Defpoints
 62
     0
100
AcDbPoint
 10
11.16929133858267
 20
12.83804037616408
 30
0.0
  0
ENDBLK
  5
2583
330
2577
100
AcDbEntity
  8
0
100
AcDbBlockEnd
  0
BLOCK
  5
2590
330
2585
100
AcDbEntity
  8
0
100
AcDbBlockBegin
  2
*D1
 70
     1
 10
0.0
 20
0.0
 30
0.0
  3
*D1
  1

  0
LINE
  5
2586
330
2585
100
AcDbEntity
  8
0
 62
     0
370
    -2
100
AcDbLine
 10
2.533464566929133
 20
10.17273622047244
 30
0.0
 11
2.533464566929133
 21
12.43289843697373
 31
0.0
  0
LINE
  5
2587
330
2585
100
AcDbEntity
  8
0
 62
     0
370
    -2
100
AcDbLine
 10
4.503937007874015
 20
10.17273622047244
 30
0.0
 11
4.503937007874015
 21
12.43289843697373
 31
0.0
  0
LINE
  5
2588
330
2585
100
AcDbEntity
  8
0
 62
     0
370
    -2
100
AcDbLine
 10
2.713464566929133
 20
12.25289843697373
 30
0.0
 11
3.023700787401574
 21
12.25289843697373
 31
0.0
  0
LINE
  5
2589
330
2585
100
AcDbEntity
  8
0
 62
     0
370
    -2
100
AcDbLine
 10
4.323937007874016
 20
12.25289843697373
 30
0.0
 11
4.013700787401575
 21
12.25289843697373
 31
0.0
  0
SOLID
  5
258A
330
2585
100
AcDbEntity
  8
0
 62
     0
100
AcDbTrace
 10
2.713464566929133
 20
12.28289843697373
 30
0.0
 11
2.713464566929133
 21
12.22289843697373
 31
0.0
 12
2.533464566929133
 22
12.25289843697373
 32
0.0
 13
2.533464566929133
 23
12.25289843697373
 33
0.0
  0
SOLID
  5
258B
330
2585
100
AcDbEntity
  8
0
 62
     0
100
AcDbTrace
 10
4.323937007874016
 20
12.28289843697373
 30
0.0
 11
4.323937007874016
 21
12.22289843697373
 31
0.0
 12
4.503937007874015
 22
12.25289843697373
 32
0.0
 13
4.503937007874015
 23
12.25289843697373
 33
0.0
  0
MTEXT
  5
258C
330
2585
100
AcDbEntity
  8
0
 62
     0
100
AcDbMText
 10
3.518700787401574
 20
12.25289843697373
 30
0.0
 40
0.18
 41
0.0
 71
     5
 72
     1
  1
\A1;1.9705
 73
     1
 44
1.0
  0
POINT
  5
258D
330
2585
100
AcDbEntity
  8
Defpoints
 62
     0
100
AcDbPoint
 10
2.533464566929133
 20
10.11023622047244
 30
0.0
  0
POINT
  5
258E
330
2585
100
AcDbEntity
  8
Defpoints
 62
     0
100
AcDbPoint
 10
4.503937007874015
 20
10.11023622047244
 30
0.0
  0
POINT
  5
258F
330
2585
100
AcDbEntity
  8
Defpoints
 62
     0
100
AcDbPoint
 10
4.503937007874015
 20
12.25289843697373
 30
0.0
  0
ENDBLK
  5
2591
330
2585
100
AcDbEntity
  8
0
100
AcDbBlockEnd
  0
ENDSEC
  0
SECTION
  2
ENTITIES
  0
LWPOLYLINE
  5
1E83
330
1E
100
AcDbEntity
  8
0
100
AcDbPolyline
 90
        7
 70
     0
 43
0.0
 10
7.237906079974937
 20
12.93030772073299
 10
7.237906079974937
 20
13.10845732703221
 10
7.344205292573361
 20
13.10845732703221
 10
7.379638363439504
 20
13.09172504356764
 10
7.379638363439504
 20
13.03759118529992
 10
7.342236788636354
 20
13.02085890183535
 10
7.237906079974937
 20
13.02085890183535
  0
LWPOLYLINE
  5
1E8C
330
1E
100
AcDbEntity
  8
0
100
AcDbPolyline
 90
        4
 70
     0
 43
0.0
 10
7.576488757140291
 20
12.93030772073299
 10
7.43377222170722
 20
12.93030772073299
 10
7.576488757140291
 20
13.10845732703221
 10
7.43377222170722
 20
13.10845732703221
  0
LWPOLYLINE
  5
1E92
330
1E
100
AcDbEntity
  8
0
100
AcDbPolyline
 90
        4
 70
     0
 43
0.0
 10
7.629638363439504
 20
12.93030772073299
 10
7.629638363439504
 20
13.10845732703221
 10
7.772354898872574
 20
12.93030772073299
 10
7.772354898872574
 20
13.10845732703221
  0
LWPOLYLINE
  5
1E98
330
1E
100
AcDbEntity
  8
0
100
AcDbPolyline
 90
        7
 70
     0
 43
0.0
 10
7.825504505171785
 20
12.93030772073299
 10
7.930819465801707
 20
12.93030772073299
 10
7.968221040604859
 20
12.96574079159913
 10
7.968221040604859
 20
13.07302425616606
 10
7.930819465801707
 20
13.10845732703221
 10
7.825504505171785
 20
13.10845732703221
 10
7.825504505171785
 20
12.93030772073299
  0
LWPOLYLINE
  5
1EA1
330
1E
100
AcDbEntity
  8
0
100
AcDbPolyline
 90
        3
 70
     0
 43
0.0
 10
8.022354898872574
 20
13.10845732703221
 10
8.093221040604859
 20
12.93030772073299
 10
8.164087182337141
 20
13.10845732703221
  0
LINE
  5
1EA6
330
1E
100
AcDbEntity
  8
0
100
AcDbLine
 10
8.218221040604859
 20
12.93030772073299
 30
0.0
 11
8.218221040604859
 21
13.10845732703221
 31
0.0
  0
LINE
  5
1EA7
330
1E
100
AcDbEntity
  8
0
100
AcDbLine
 10
8.342236788636355
 20
13.10845732703221
 30
0.0
 11
8.218221040604859
 21
12.98444157900071
 31
0.0
  0
LINE
  5
1EA8
330
1E
100
AcDbEntity
  8
0
100
AcDbLine
 10
8.342236788636355
 20
12.93030772073299
 30
0.0
 11
8.270386394935567
 21
13.03759118529992
 31
0.0
  0
LINE
  5
1EA9
330
1E
100
AcDbEntity
  8
0
100
AcDbLine
 10
3.383858267716535
 20
10.32775590551181
 30
0.0
 11
3.278543307086614
 21
10.32775590551181
 31
0.0
  0
LINE
  5
1EAA
330
1E
100
AcDbEntity
  8
0
100
AcDbLine
 10
3.278543307086614
 20
10.32775590551181
 30
0.0
 11
3.278543307086614
 21
10.0511811023622
 31
0.0
  0
LINE
  5
1EAB
330
1E
100
AcDbEntity
  8
0
100
AcDbLine
 10
3.278543307086614
 20
10.0511811023622
 30
0.0
 11
3.383858267716535
 21
10.0511811023622
 31
0.0
  0
LINE
  5
1EAC
330
1E
100
AcDbEntity
  8
0
100
AcDbLine
 10
3.383858267716535
 20
10.0511811023622
 30
0.0
 11
3.383858267716535
 21
10.32775590551181
 31
0.0
  0
LINE
  5
1EAD
330
1E
100
AcDbEntity
  8
0
100
AcDbLine
 10
3.570866141732283
 20
10.32775590551181
 30
0.0
 11
3.466535433070866
 21
10.32775590551181
 31
0.0
  0
LINE
  5
1EAE
330
1E
100
AcDbEntity
  8
0
100
AcDbLine
 10
3.466535433070866
 20
10.32775590551181
 30
0.0
 11
3.466535433070866
 21
10.0511811023622
 31
0.0
  0
LINE
  5
1EAF
330
1E
100
AcDbEntity
  8
0
100
AcDbLine
 10
3.466535433070866
 20
10.0511811023622
 30
0.0
 11
3.570866141732283
 21
10.0511811023622
 31
0.0
  0
LINE
  5
1EB0
330
1E
100
AcDbEntity
  8
0
100
AcDbLine
 10
3.570866141732283
 20
10.0511811023622
 30
0.0
 11
3.570866141732283
 21
10.32775590551181
 31
0.0
  0
LINE
  5
1EB1
330
1E
100
AcDbEntity
  8
0
100
AcDbLine
 10
4.114173228346456
 20
10.32775590551181
 30
0.0
 11
3.841535433070866
 21
10.32775590551181
 31
0.0
  0
LINE
  5
1EB2
330
1E
100
AcDbEntity
  8
0
100
AcDbLine
 10
3.841535433070866
 20
10.32775590551181
 30
0.0
 11
3.841535433070866
 21
10.0511811023622
 31
0.0
  0
LINE
  5
1EB3
330
1E
100
AcDbEntity
  8
0
100
AcDbLine
 10
3.841535433070866
 20
10.0511811023622
 30
0.0
 11
3.958661417322834
 21
10.0511811023622
 31
0.0
  0
LINE
  5
1EB4
330
1E
100
AcDbEntity
  8
0
100
AcDbLine
 10
3.958661417322834
 20
10.0511811023622
 30
0.0
 11
3.958661417322834
 21
10.06791338582677
 31
0.0
  0
LWPOLYLINE
  5
1EB5
330
1E
100
AcDbEntity
  8
0
100
AcDbPolyline
 90
        6
 70
     0
 43
0.0
 10
3.958661417322834
 20
10.06791338582677
 10
3.965551181102362
 20
10.13090551181102
 10
3.98523622047244
 20
10.19192913385826
 10
4.01771653543307
 20
10.24606299212598
 10
4.062007874015748
 20
10.29232283464566
 10
4.114173228346456
 20
10.32775590551181
  0
LINE
  5
1EBD
330
1E
100
AcDbEntity
  8
0
100
AcDbLine
 10
3.653543307086613
 20
10.0511811023622
 30
0.0
 11
3.758858267716535
 21
10.0511811023622
 31
0.0
  0
LINE
  5
1EBE
330
1E
100
AcDbEntity
  8
0
100
AcDbLine
 10
3.758858267716535
 20
10.0511811023622
 30
0.0
 11
3.758858267716535
 21
10.32775590551181
 31
0.0
  0
LINE
  5
1EBF
330
1E
100
AcDbEntity
  8
0
100
AcDbLine
 10
3.758858267716535
 20
10.32775590551181
 30
0.0
 11
3.653543307086613
 21
10.32775590551181
 31
0.0
  0
LINE
  5
1EC0
330
1E
100
AcDbEntity
  8
0
100
AcDbLine
 10
3.653543307086613
 20
10.32775590551181
 30
0.0
 11
3.653543307086613
 21
10.0511811023622
 31
0.0
  0
LINE
  5
1EC1
330
1E
100
AcDbEntity
  8
0
100
AcDbLine
 10
4.374015748031496
 20
7.820866141732283
 30
0.0
 11
4.374015748031496
 21
10.11023622047244
 31
0.0
  0
LWPOLYLINE
  5
1EC2
330
1E
100
AcDbEntity
  8
0
100
AcDbPolyline
 90
        5
 70
     0
 43
0.0
 10
4.374015748031496
 20
10.11023622047244
 10
4.36515748031496
 20
10.1505905511811
 10
4.34251968503937
 20
10.18503937007874
 10
4.309055118110236
 20
10.20767716535433
 10
4.268700787401574
 20
10.21555118110236
  0
LINE
  5
1EC9
330
1E
100
AcDbEntity
  8
0
100
AcDbLine
 10
4.268700787401574
 20
10.21555118110236
 30
0.0
 11
4.253937007874015
 21
10.21555118110236
 31
0.0
  0
LWPOLYLINE
  5
1ECA
330
1E
100
AcDbEntity
  8
0
100
AcDbPolyline
 90
        3
 70
     0
 43
0.0
 10
4.253937007874015
 20
10.21555118110236
 10
4.195866141732283
 20
10.19881889763779
 10
4.157480314960629
 20
10.1525590551181
  0
LWPOLYLINE
  5
1ECF
330
1E
100
AcDbEntity
  8
0
100
AcDbPolyline
 90
        4
 70
     0
 43
0.0
 10
4.157480314960629
 20
10.1525590551181
 10
4.128937007874015
 20
10.09350393700787
 10
4.093503937007874
 20
10.03740157480315
 10
4.051181102362204
 20
9.993110236220472
  0
LWPOLYLINE
  5
1ED5
330
1E
100
AcDbEntity
  8
0
100
AcDbPolyline
 90
        3
 70
     0
 43
0.0
 10
4.051181102362204
 20
9.993110236220472
 10
4.005905511811023
 20
9.968503937007874
 10
3.958661417322834
 20
9.959645669291338
  0
LINE
  5
1EDA
330
1E
100
AcDbEntity
  8
0
100
AcDbLine
 10
3.958661417322834
 20
9.959645669291338
 30
0.0
 11
3.078740157480314
 21
9.959645669291338
 31
0.0
  0
LWPOLYLINE
  5
1EDB
330
1E
100
AcDbEntity
  8
0
100
AcDbPolyline
 90
        3
 70
     0
 43
0.0
 10
3.078740157480314
 20
9.959645669291338
 10
3.031496062992125
 20
9.968503937007874
 10
2.986220472440944
 20
9.993110236220472
  0
LWPOLYLINE
  5
1EE0
330
1E
100
AcDbEntity
  8
0
100
AcDbPolyline
 90
        4
 70
     0
 43
0.0
 10
2.986220472440944
 20
9.993110236220472
 10
2.937007874015748
 20
10.04724409448819
 10
2.905511811023622
 20
10.09842519685039
 10
2.879921259842519
 20
10.1525590551181
  0
LWPOLYLINE
  5
1EE6
330
1E
100
AcDbEntity
  8
0
100
AcDbPolyline
 90
        3
 70
     0
 43
0.0
 10
2.879921259842519
 20
10.1525590551181
 10
2.841535433070866
 20
10.19881889763779
 10
2.783464566929133
 20
10.21555118110236
  0
LINE
  5
1EEB
330
1E
100
AcDbEntity
  8
0
100
AcDbLine
 10
2.783464566929133
 20
10.21555118110236
 30
0.0
 11
2.768700787401574
 21
10.21555118110236
 31
0.0
  0
LWPOLYLINE
  5
1EEC
330
1E
100
AcDbEntity
  8
0
100
AcDbPolyline
 90
        5
 70
     0
 43
0.0
 10
2.768700787401574
 20
10.21555118110236
 10
2.728346456692913
 20
10.20767716535433
 10
2.693897637795275
 20
10.18503937007874
 10
2.671259842519685
 20
10.1505905511811
 10
2.663385826771653
 20
10.11023622047244
  0
LINE
  5
1EF3
330
1E
100
AcDbEntity
  8
0
100
AcDbLine
 10
2.663385826771653
 20
10.11023622047244
 30
0.0
 11
2.663385826771653
 21
7.820866141732283
 31
0.0
  0
LWPOLYLINE
  5
1EF4
330
1E
100
AcDbEntity
  8
0
100
AcDbPolyline
 90
        5
 70
     0
 43
0.0
 10
2.663385826771653
 20
7.820866141732283
 10
2.671259842519685
 20
7.780511811023622
 10
2.693897637795275
 20
7.746062992125984
 10
2.728346456692913
 20
7.723425196850393
 10
2.768700787401574
 20
7.715551181102362
  0
LINE
  5
1EFB
330
1E
100
AcDbEntity
  8
0
100
AcDbLine
 10
2.768700787401574
 20
7.715551181102362
 30
0.0
 11
4.268700787401574
 21
7.715551181102362
 31
0.0
  0
LWPOLYLINE
  5
1EFC
330
1E
100
AcDbEntity
  8
0
100
AcDbPolyline
 90
        5
 70
     0
 43
0.0
 10
4.268700787401574
 20
7.715551181102362
 10
4.309055118110236
 20
7.723425196850393
 10
4.34251968503937
 20
7.746062992125984
 10
4.36515748031496
 20
7.780511811023622
 10
4.374015748031496
 20
7.820866141732283
  0
LWPOLYLINE
  5
1F03
330
1E
100
AcDbEntity
  8
0
100
AcDbPolyline
 90
       13
 70
     0
 43
0.0
 10
4.043307086614173
 20
9.557086614173227
 10
4.034448818897637
 20
9.589566929133857
 10
4.010826771653543
 20
9.613188976377951
 10
3.978346456692913
 20
9.622047244094488
 10
3.945866141732283
 20
9.613188976377951
 10
3.922244094488188
 20
9.589566929133857
 10
3.913385826771653
 20
9.557086614173227
 10
3.922244094488188
 20
9.524606299212598
 10
3.945866141732283
 20
9.500984251968503
 10
3.978346456692913
 20
9.492125984251968
 10
4.010826771653543
 20
9.500984251968503
 10
4.034448818897637
 20
9.524606299212598
 10
4.043307086614173
 20
9.557086614173227
  0
LWPOLYLINE
  5
1F12
330
1E
100
AcDbEntity
  8
0
100
AcDbPolyline
 90
       13
 70
     0
 43
0.0
 10
3.124015748031495
 20
9.298228346456692
 10
3.11515748031496
 20
9.330708661417322
 10
3.091535433070866
 20
9.354330708661416
 10
3.059055118110236
 20
9.363188976377951
 10
3.026574803149606
 20
9.354330708661416
 10
3.001968503937007
 20
9.330708661417322
 10
2.994094488188976
 20
9.298228346456692
 10
3.001968503937007
 20
9.265748031496062
 10
3.026574803149606
 20
9.242125984251968
 10
3.059055118110236
 20
9.233267716535433
 10
3.091535433070866
 20
9.242125984251968
 10
3.11515748031496
 20
9.265748031496062
 10
3.124015748031495
 20
9.298228346456692
  0
LWPOLYLINE
  5
1F21
330
1E
100
AcDbEntity
  8
0
100
AcDbPolyline
 90
       13
 70
     0
 43
0.0
 10
3.583661417322834
 20
9.86023622047244
 10
3.574803149606299
 20
9.89271653543307
 10
3.551181102362204
 20
9.917322834645668
 10
3.518700787401574
 20
9.926181102362203
 10
3.486220472440944
 20
9.917322834645668
 10
3.46259842519685
 20
9.89271653543307
 10
3.453740157480314
 20
9.86023622047244
 10
3.46259842519685
 20
9.827755905511811
 10
3.486220472440944
 20
9.804133858267716
 10
3.518700787401574
 20
9.795275590551181
 10
3.551181102362204
 20
9.804133858267716
 10
3.574803149606299
 20
9.827755905511811
 10
3.583661417322834
 20
9.86023622047244
  0
LWPOLYLINE
  5
1F30
330
1E
100
AcDbEntity
  8
0
100
AcDbPolyline
 90
       13
 70
     0
 43
0.0
 10
3.583661417322834
 20
8.070866141732283
 10
3.574803149606299
 20
8.103346456692912
 10
3.551181102362204
 20
8.126968503937007
 10
3.518700787401574
 20
8.135826771653542
 10
3.486220472440944
 20
8.126968503937007
 10
3.46259842519685
 20
8.103346456692912
 10
3.453740157480314
 20
8.070866141732283
 10
3.46259842519685
 20
8.038385826771653
 10
3.486220472440944
 20
8.014763779527559
 10
3.518700787401574
 20
8.005905511811024
 10
3.551181102362204
 20
8.014763779527559
 10
3.574803149606299
 20
8.038385826771653
 10
3.583661417322834
 20
8.070866141732283
  0
LINE
  5
1F3F
330
1E
100
AcDbEntity
  8
0
100
AcDbLine
 10
4.268700787401574
 20
7.585629921259842
 30
0.0
 11
2.768700787401574
 21
7.585629921259842
 31
0.0
  0
LINE
  5
1F40
330
1E
100
AcDbEntity
  8
0
100
AcDbLine
 10
2.533464566929133
 20
7.820866141732283
 30
0.0
 11
2.533464566929133
 21
10.11023622047244
 31
0.0
  0
LINE
  5
1F41
330
1E
100
AcDbEntity
  8
0
100
AcDbLine
 10
4.253937007874015
 20
10.34547244094488
 30
0.0
 11
4.268700787401574
 21
10.34547244094488
 31
0.0
  0
LINE
  5
1F42
330
1E
100
AcDbEntity
  8
0
100
AcDbLine
 10
2.768700787401574
 20
10.34547244094488
 30
0.0
 11
2.783464566929133
 21
10.34547244094488
 31
0.0
  0
LWPOLYLINE
  5
1F43
330
1E
100
AcDbEntity
  8
0
100
AcDbPolyline
 90
        5
 70
     0
 43
0.0
 10
2.783464566929133
 20
10.34547244094488
 10
2.784448818897637
 20
10.34547244094488
 10
2.795275590551181
 20
10.34547244094488
 10
2.848425196850393
 20
10.34547244094488
 10
2.923228346456692
 20
10.34547244094488
  0
LINE
  5
1F4A
330
1E
100
AcDbEntity
  8
0
100
AcDbLine
 10
2.923228346456692
 20
10.34547244094488
 30
0.0
 11
4.114173228346456
 21
10.34547244094488
 31
0.0
  0
LWPOLYLINE
  5
1F4B
330
1E
100
AcDbEntity
  8
0
100
AcDbPolyline
 90
        5
 70
     0
 43
0.0
 10
4.114173228346456
 20
10.34547244094488
 10
4.187992125984251
 20
10.34547244094488
 10
4.242125984251968
 20
10.34547244094488
 10
4.252952755905512
 20
10.34547244094488
 10
4.253937007874015
 20
10.34547244094488
  0
LINE
  5
1F52
330
1E
100
AcDbEntity
  8
0
100
AcDbLine
 10
4.503937007874015
 20
10.11023622047244
 30
0.0
 11
4.503937007874015
 21
7.820866141732283
 31
0.0
  0
LWPOLYLINE
  5
1F53
330
1E
100
AcDbEntity
  8
0
100
AcDbPolyline
 90
        7
 70
     0
 43
0.0
 10
2.768700787401574
 20
7.585629921259842
 10
2.70767716535433
 20
7.593503937007874
 10
2.651574803149606
 20
7.617125984251968
 10
2.602362204724409
 20
7.654527559055117
 10
2.564960629921259
 20
7.702755905511811
 10
2.541338582677165
 20
7.759842519685038
 10
2.533464566929133
 20
7.820866141732283
  0
LWPOLYLINE
  5
1F5C
330
1E
100
AcDbEntity
  8
0
100
AcDbPolyline
 90
        7
 70
     0
 43
0.0
 10
4.503937007874015
 20
7.820866141732283
 10
4.496062992125984
 20
7.759842519685038
 10
4.472440944881889
 20
7.702755905511811
 10
4.435039370078739
 20
7.654527559055117
 10
4.385826771653543
 20
7.617125984251968
 10
4.329724409448818
 20
7.593503937007874
 10
4.268700787401574
 20
7.585629921259842
  0
LWPOLYLINE
  5
1F65
330
1E
100
AcDbEntity
  8
0
100
AcDbPolyline
 90
        7
 70
     0
 43
0.0
 10
4.268700787401574
 20
10.34547244094488
 10
4.329724409448818
 20
10.33759842519685
 10
4.385826771653543
 20
10.31397637795275
 10
4.435039370078739
 20
10.2765748031496
 10
4.472440944881889
 20
10.22834645669291
 10
4.496062992125984
 20
10.17125984251968
 10
4.503937007874015
 20
10.11023622047244
  0
LWPOLYLINE
  5
1F6E
330
1E
100
AcDbEntity
  8
0
100
AcDbPolyline
 90
        7
 70
     0
 43
0.0
 10
2.533464566929133
 20
10.11023622047244
 10
2.541338582677165
 20
10.17125984251968
 10
2.564960629921259
 20
10.22834645669291
 10
2.602362204724409
 20
10.2765748031496
 10
2.651574803149606
 20
10.31397637795275
 10
2.70767716535433
 20
10.33759842519685
 10
2.768700787401574
 20
10.34547244094488
  0
LINE
  5
1F77
330
1E
100
AcDbEntity
  8
0
100
AcDbLine
 10
3.078740157480314
 20
10.0511811023622
 30
0.0
 11
3.195866141732283
 21
10.0511811023622
 31
0.0
  0
LINE
  5
1F78
330
1E
100
AcDbEntity
  8
0
100
AcDbLine
 10
3.195866141732283
 20
10.0511811023622
 30
0.0
 11
3.195866141732283
 21
10.32775590551181
 31
0.0
  0
LINE
  5
1F79
330
1E
100
AcDbEntity
  8
0
100
AcDbLine
 10
3.195866141732283
 20
10.32775590551181
 30
0.0
 11
2.923228346456692
 21
10.32775590551181
 31
0.0
  0
LWPOLYLINE
  5
1F7A
330
1E
100
AcDbEntity
  8
0
100
AcDbPolyline
 90
        6
 70
     0
 43
0.0
 10
2.923228346456692
 20
10.32775590551181
 10
2.975393700787401
 20
10.29232283464566
 10
3.018700787401574
 20
10.24606299212598
 10
3.051181102362204
 20
10.19192913385826
 10
3.071850393700787
 20
10.13090551181102
 10
3.078740157480314
 20
10.06791338582677
  0
LINE
  5
1F82
330
1E
100
AcDbEntity
  8
0
100
AcDbLine
 10
3.078740157480314
 20
10.06791338582677
 30
0.0
 11
3.078740157480314
 21
10.0511811023622
 31
0.0
  0
LWPOLYLINE
  5
1F83
330
1E
100
AcDbEntity
  8
0
100
AcDbPolyline
 90
        5
 70
     0
 43
0.0
 10
2.783464566929133
 20
10.34547244094488
 10
2.850393700787401
 20
10.33562992125984
 10
2.912401574803149
 20
10.30708661417322
 10
2.963582677165354
 20
10.26181102362204
 10
2.999015748031495
 20
10.20472440944881
  0
LWPOLYLINE
  5
1F8A
330
1E
100
AcDbEntity
  8
0
100
AcDbPolyline
 90
        5
 70
     0
 43
0.0
 10
4.038385826771653
 20
10.20472440944881
 10
4.073818897637795
 20
10.26181102362204
 10
4.125
 20
10.30708661417322
 10
4.186023622047244
 20
10.33562992125984
 10
4.253937007874015
 20
10.34547244094488
  0
LINE
  5
1F91
330
1E
100
AcDbEntity
  8
0
100
AcDbLine
 10
3.278543307086614
 20
10.09547244094488
 30
0.0
 11
3.195866141732283
 21
10.09547244094488
 31
0.0
  0
LINE
  5
1F92
330
1E
100
AcDbEntity
  8
0
100
AcDbLine
 10
3.841535433070866
 20
10.09547244094488
 30
0.0
 11
3.758858267716535
 21
10.09547244094488
 31
0.0
  0
LINE
  5
1F93
330
1E
100
AcDbEntity
  8
0
100
AcDbLine
 10
3.653543307086613
 20
10.09547244094488
 30
0.0
 11
3.570866141732283
 21
10.09547244094488
 31
0.0
  0
LINE
  5
1F94
330
1E
100
AcDbEntity
  8
0
100
AcDbLine
 10
3.466535433070866
 20
10.09547244094488
 30
0.0
 11
3.383858267716535
 21
10.09547244094488
 31
0.0
  0
LWPOLYLINE
  5
1F95
330
1E
100
AcDbEntity
  8
0
100
AcDbPolyline
 90
        3
 70
     0
 43
0.0
 10
2.999015748031495
 20
10.20472440944881
 10
3.03248031496063
 20
10.11515748031496
 10
3.049212598425196
 20
10.07381889763779
  0
LWPOLYLINE
  5
1F9A
330
1E
100
AcDbEntity
  8
0
100
AcDbPolyline
 90
        3
 70
     0
 43
0.0
 10
3.078740157480314
 20
10.06791338582677
 10
3.063976377952756
 20
10.06988188976378
 10
3.049212598425196
 20
10.07381889763779
  0
LWPOLYLINE
  5
1F9F
330
1E
100
AcDbEntity
  8
0
100
AcDbPolyline
 90
        4
 70
     0
 43
0.0
 10
2.923228346456692
 20
10.32775590551181
 10
2.857283464566929
 20
10.33956692913385
 10
2.784448818897637
 20
10.34547244094488
 10
2.783464566929133
 20
10.34547244094488
  0
LWPOLYLINE
  5
1FA5
330
1E
100
AcDbEntity
  8
0
100
AcDbPolyline
 90
        3
 70
     0
 43
0.0
 10
3.049212598425196
 20
10.07381889763779
 10
3.063976377952756
 20
10.05708661417322
 10
3.078740157480314
 20
10.0511811023622
  0
LWPOLYLINE
  5
1FAA
330
1E
100
AcDbEntity
  8
0
100
AcDbPolyline
 90
        3
 70
     0
 43
0.0
 10
3.988188976377952
 20
10.07381889763779
 10
3.973425196850393
 20
10.06988188976378
 10
3.958661417322834
 20
10.06791338582677
  0
LWPOLYLINE
  5
1FAF
330
1E
100
AcDbEntity
  8
0
100
AcDbPolyline
 90
        3
 70
     0
 43
0.0
 10
3.988188976377952
 20
10.07381889763779
 10
4.001968503937007
 20
10.10728346456692
 10
4.038385826771653
 20
10.20472440944881
  0
LWPOLYLINE
  5
1FB4
330
1E
100
AcDbEntity
  8
0
100
AcDbPolyline
 90
        4
 70
     0
 43
0.0
 10
4.253937007874015
 20
10.34547244094488
 10
4.252952755905512
 20
10.34547244094488
 10
4.18011811023622
 20
10.33956692913385
 10
4.114173228346456
 20
10.32775590551181
  0
LWPOLYLINE
  5
1FBA
330
1E
100
AcDbEntity
  8
0
100
AcDbPolyline
 90
        3
 70
     0
 43
0.0
 10
3.958661417322834
 20
10.0511811023622
 10
3.973425196850393
 20
10.05708661417322
 10
3.988188976377952
 20
10.07381889763779
  0
LWPOLYLINE
  5
1FBF
330
1E
100
AcDbEntity
  8
0
100
AcDbPolyline
 90
        3
 70
     0
 43
0.0
 10
4.114173228346456
 20
10.32775590551181
 10
4.114173228346456
 20
10.34153543307086
 10
4.114173228346456
 20
10.34547244094488
  0
LWPOLYLINE
  5
1FC4
330
1E
100
AcDbEntity
  8
0
100
AcDbPolyline
 90
        3
 70
     0
 43
0.0
 10
3.278543307086614
 20
10.32775590551181
 10
3.278543307086614
 20
10.33464566929134
 10
3.278543307086614
 20
10.34055118110236
  0
LWPOLYLINE
  5
1FC9
330
1E
100
AcDbEntity
  8
0
100
AcDbPolyline
 90
        3
 70
     0
 43
0.0
 10
3.383858267716535
 20
10.34055118110236
 10
3.383858267716535
 20
10.33464566929134
 10
3.383858267716535
 20
10.32775590551181
  0
LINE
  5
1FCE
330
1E
100
AcDbEntity
  8
0
100
AcDbLine
 10
3.466535433070866
 20
10.34055118110236
 30
0.0
 11
3.383858267716535
 21
10.34055118110236
 31
0.0
  0
LWPOLYLINE
  5
1FCF
330
1E
100
AcDbEntity
  8
0
100
AcDbPolyline
 90
        3
 70
     0
 43
0.0
 10
3.466535433070866
 20
10.32775590551181
 10
3.466535433070866
 20
10.33464566929134
 10
3.466535433070866
 20
10.34055118110236
  0
LWPOLYLINE
  5
1FD4
330
1E
100
AcDbEntity
  8
0
100
AcDbPolyline
 90
        3
 70
     0
 43
0.0
 10
3.570866141732283
 20
10.34055118110236
 10
3.570866141732283
 20
10.33464566929134
 10
3.570866141732283
 20
10.32775590551181
  0
LINE
  5
1FD9
330
1E
100
AcDbEntity
  8
0
100
AcDbLine
 10
3.653543307086613
 20
10.34055118110236
 30
0.0
 11
3.570866141732283
 21
10.34055118110236
 31
0.0
  0
LWPOLYLINE
  5
1FDA
330
1E
100
AcDbEntity
  8
0
100
AcDbPolyline
 90
        3
 70
     0
 43
0.0
 10
3.653543307086613
 20
10.32775590551181
 10
3.653543307086613
 20
10.33464566929134
 10
3.653543307086613
 20
10.34055118110236
  0
LWPOLYLINE
  5
1FDF
330
1E
100
AcDbEntity
  8
0
100
AcDbPolyline
 90
        3
 70
     0
 43
0.0
 10
3.758858267716535
 20
10.34055118110236
 10
3.758858267716535
 20
10.33464566929134
 10
3.758858267716535
 20
10.32775590551181
  0
LINE
  5
1FE4
330
1E
100
AcDbEntity
  8
0
100
AcDbLine
 10
3.841535433070866
 20
10.34055118110236
 30
0.0
 11
3.758858267716535
 21
10.34055118110236
 31
0.0
  0
LWPOLYLINE
  5
1FE5
330
1E
100
AcDbEntity
  8
0
100
AcDbPolyline
 90
        3
 70
     0
 43
0.0
 10
3.841535433070866
 20
10.32775590551181
 10
3.841535433070866
 20
10.33464566929134
 10
3.841535433070866
 20
10.34055118110236
  0
LWPOLYLINE
  5
1FEA
330
1E
100
AcDbEntity
  8
0
100
AcDbPolyline
 90
        3
 70
     0
 43
0.0
 10
2.923228346456692
 20
10.32775590551181
 10
2.923228346456692
 20
10.34153543307086
 10
2.923228346456692
 20
10.34547244094488
  0
LWPOLYLINE
  5
1FEF
330
1E
100
AcDbEntity
  8
0
100
AcDbPolyline
 90
        3
 70
     0
 43
0.0
 10
3.195866141732283
 20
10.34055118110236
 10
3.195866141732283
 20
10.33464566929134
 10
3.195866141732283
 20
10.32775590551181
  0
LINE
  5
1FF4
330
1E
100
AcDbEntity
  8
0
100
AcDbLine
 10
3.278543307086614
 20
10.34055118110236
 30
0.0
 11
3.195866141732283
 21
10.34055118110236
 31
0.0
  0
LWPOLYLINE
  5
1FF5
330
1E
100
AcDbEntity
  8
0
100
AcDbPolyline
 90
        5
 70
     0
 43
0.0
 10
2.999015748031495
 20
10.20472440944881
 10
2.99015748031496
 20
10.2007874015748
 10
2.964566929133858
 20
10.18897637795275
 10
2.9251968503937
 20
10.17224409448818
 10
2.879921259842519
 20
10.1525590551181
  0
LWPOLYLINE
  5
1FFC
330
1E
100
AcDbEntity
  8
0
100
AcDbPolyline
 90
        5
 70
     0
 43
0.0
 10
2.783464566929133
 20
10.21555118110236
 10
2.783464566929133
 20
10.26574803149606
 10
2.783464566929133
 20
10.30807086614173
 10
2.783464566929133
 20
10.33562992125984
 10
2.783464566929133
 20
10.34547244094488
  0
LWPOLYLINE
  5
2003
330
1E
100
AcDbEntity
  8
0
100
AcDbPolyline
 90
        5
 70
     0
 43
0.0
 10
2.768700787401574
 20
10.21555118110236
 10
2.768700787401574
 20
10.26574803149606
 10
2.768700787401574
 20
10.30807086614173
 10
2.768700787401574
 20
10.33562992125984
 10
2.768700787401574
 20
10.34547244094488
  0
LWPOLYLINE
  5
200A
330
1E
100
AcDbEntity
  8
0
100
AcDbPolyline
 90
        3
 70
     0
 43
0.0
 10
3.049212598425196
 20
10.07381889763779
 10
3.021653543307086
 20
10.03740157480315
 10
2.986220472440944
 20
9.993110236220472
  0
LWPOLYLINE
  5
200F
330
1E
100
AcDbEntity
  8
0
100
AcDbPolyline
 90
        5
 70
     0
 43
0.0
 10
2.663385826771653
 20
10.11023622047244
 10
2.614173228346456
 20
10.11023622047244
 10
2.571850393700787
 20
10.11023622047244
 10
2.543307086614173
 20
10.11023622047244
 10
2.533464566929133
 20
10.11023622047244
  0
LWPOLYLINE
  5
2016
330
1E
100
AcDbEntity
  8
0
100
AcDbPolyline
 90
        3
 70
     0
 43
0.0
 10
3.078740157480314
 20
10.0511811023622
 10
3.078740157480314
 20
10.00885826771653
 10
3.078740157480314
 20
9.959645669291338
  0
LWPOLYLINE
  5
201B
330
1E
100
AcDbEntity
  8
0
100
AcDbPolyline
 90
        5
 70
     0
 43
0.0
 10
2.663385826771653
 20
7.820866141732283
 10
2.614173228346456
 20
7.820866141732283
 10
2.571850393700787
 20
7.820866141732283
 10
2.543307086614173
 20
7.820866141732283
 10
2.533464566929133
 20
7.820866141732283
  0
LWPOLYLINE
  5
2022
330
1E
100
AcDbEntity
  8
0
100
AcDbPolyline
 90
        3
 70
     0
 43
0.0
 10
3.278543307086614
 20
10.04527559055118
 10
3.278543307086614
 20
10.04822834645669
 10
3.278543307086614
 20
10.0511811023622
  0
LINE
  5
2027
330
1E
100
AcDbEntity
  8
0
100
AcDbLine
 10
3.195866141732283
 20
10.04527559055118
 30
0.0
 11
3.278543307086614
 21
10.04527559055118
 31
0.0
  0
LWPOLYLINE
  5
2028
330
1E
100
AcDbEntity
  8
0
100
AcDbPolyline
 90
        3
 70
     0
 43
0.0
 10
3.195866141732283
 20
10.0511811023622
 10
3.195866141732283
 20
10.04822834645669
 10
3.195866141732283
 20
10.04527559055118
  0
LWPOLYLINE
  5
202D
330
1E
100
AcDbEntity
  8
0
100
AcDbPolyline
 90
        3
 70
     0
 43
0.0
 10
3.958661417322834
 20
10.0511811023622
 10
3.958661417322834
 20
10.00885826771653
 10
3.958661417322834
 20
9.959645669291338
  0
LWPOLYLINE
  5
2032
330
1E
100
AcDbEntity
  8
0
100
AcDbPolyline
 90
        3
 70
     0
 43
0.0
 10
3.841535433070866
 20
10.04527559055118
 10
3.841535433070866
 20
10.04822834645669
 10
3.841535433070866
 20
10.0511811023622
  0
LINE
  5
2037
330
1E
100
AcDbEntity
  8
0
100
AcDbLine
 10
3.758858267716535
 20
10.04527559055118
 30
0.0
 11
3.841535433070866
 21
10.04527559055118
 31
0.0
  0
LWPOLYLINE
  5
2038
330
1E
100
AcDbEntity
  8
0
100
AcDbPolyline
 90
        3
 70
     0
 43
0.0
 10
3.758858267716535
 20
10.0511811023622
 10
3.758858267716535
 20
10.04822834645669
 10
3.758858267716535
 20
10.04527559055118
  0
LWPOLYLINE
  5
203D
330
1E
100
AcDbEntity
  8
0
100
AcDbPolyline
 90
        3
 70
     0
 43
0.0
 10
3.653543307086613
 20
10.04527559055118
 10
3.653543307086613
 20
10.04822834645669
 10
3.653543307086613
 20
10.0511811023622
  0
LINE
  5
2042
330
1E
100
AcDbEntity
  8
0
100
AcDbLine
 10
3.570866141732283
 20
10.04527559055118
 30
0.0
 11
3.653543307086613
 21
10.04527559055118
 31
0.0
  0
LWPOLYLINE
  5
2043
330
1E
100
AcDbEntity
  8
0
100
AcDbPolyline
 90
        3
 70
     0
 43
0.0
 10
3.570866141732283
 20
10.0511811023622
 10
3.570866141732283
 20
10.04822834645669
 10
3.570866141732283
 20
10.04527559055118
  0
LWPOLYLINE
  5
2048
330
1E
100
AcDbEntity
  8
0
100
AcDbPolyline
 90
        3
 70
     0
 43
0.0
 10
3.466535433070866
 20
10.04527559055118
 10
3.466535433070866
 20
10.04822834645669
 10
3.466535433070866
 20
10.0511811023622
  0
LINE
  5
204D
330
1E
100
AcDbEntity
  8
0
100
AcDbLine
 10
3.383858267716535
 20
10.04527559055118
 30
0.0
 11
3.466535433070866
 21
10.04527559055118
 31
0.0
  0
LWPOLYLINE
  5
204E
330
1E
100
AcDbEntity
  8
0
100
AcDbPolyline
 90
        3
 70
     0
 43
0.0
 10
3.383858267716535
 20
10.0511811023622
 10
3.383858267716535
 20
10.04822834645669
 10
3.383858267716535
 20
10.04527559055118
  0
LWPOLYLINE
  5
2053
330
1E
100
AcDbEntity
  8
0
100
AcDbPolyline
 90
        5
 70
     0
 43
0.0
 10
2.768700787401574
 20
7.715551181102362
 10
2.768700787401574
 20
7.666338582677164
 10
2.768700787401574
 20
7.624015748031496
 10
2.768700787401574
 20
7.595472440944881
 10
2.768700787401574
 20
7.585629921259842
  0
LWPOLYLINE
  5
205A
330
1E
100
AcDbEntity
  8
0
100
AcDbPolyline
 90
        3
 70
     0
 43
0.0
 10
3.988188976377952
 20
10.07381889763779
 10
4.015748031496062
 20
10.03740157480315
 10
4.051181102362204
 20
9.993110236220472
  0
LWPOLYLINE
  5
205F
330
1E
100
AcDbEntity
  8
0
100
AcDbPolyline
 90
        5
 70
     0
 43
0.0
 10
4.268700787401574
 20
7.715551181102362
 10
4.268700787401574
 20
7.666338582677164
 10
4.268700787401574
 20
7.624015748031496
 10
4.268700787401574
 20
7.595472440944881
 10
4.268700787401574
 20
7.585629921259842
  0
LWPOLYLINE
  5
2066
330
1E
100
AcDbEntity
  8
0
100
AcDbPolyline
 90
        5
 70
     0
 43
0.0
 10
4.038385826771653
 20
10.20472440944881
 10
4.047244094488188
 20
10.2007874015748
 10
4.072834645669291
 20
10.18897637795275
 10
4.111220472440944
 20
10.17224409448818
 10
4.157480314960629
 20
10.1525590551181
  0
LWPOLYLINE
  5
206D
330
1E
100
AcDbEntity
  8
0
100
AcDbPolyline
 90
        5
 70
     0
 43
0.0
 10
4.374015748031496
 20
7.820866141732283
 10
4.423228346456692
 20
7.820866141732283
 10
4.465551181102362
 20
7.820866141732283
 10
4.494094488188975
 20
7.820866141732283
 10
4.503937007874015
 20
7.820866141732283
  0
LWPOLYLINE
  5
2074
330
1E
100
AcDbEntity
  8
0
100
AcDbPolyline
 90
        5
 70
     0
 43
0.0
 10
4.253937007874015
 20
10.34547244094488
 10
4.253937007874015
 20
10.33562992125984
 10
4.253937007874015
 20
10.30807086614173
 10
4.253937007874015
 20
10.26574803149606
 10
4.253937007874015
 20
10.21555118110236
  0
LWPOLYLINE
  5
207B
330
1E
100
AcDbEntity
  8
0
100
AcDbPolyline
 90
        5
 70
     0
 43
0.0
 10
4.374015748031496
 20
10.11023622047244
 10
4.423228346456692
 20
10.11023622047244
 10
4.465551181102362
 20
10.11023622047244
 10
4.494094488188975
 20
10.11023622047244
 10
4.503937007874015
 20
10.11023622047244
  0
LWPOLYLINE
  5
2082
330
1E
100
AcDbEntity
  8
0
100
AcDbPolyline
 90
        5
 70
     0
 43
0.0
 10
4.268700787401574
 20
10.34547244094488
 10
4.268700787401574
 20
10.33562992125984
 10
4.268700787401574
 20
10.30807086614173
 10
4.268700787401574
 20
10.26574803149606
 10
4.268700787401574
 20
10.21555118110236
  0
LWPOLYLINE
  5
2089
330
1E
100
AcDbEntity
  8
0
100
AcDbPolyline
 90
        7
 70
     0
 43
0.0
 10
7.1751968503937
 20
10.34547244094488
 10
7.1751968503937
 20
10.33759842519685
 10
7.1751968503937
 20
10.31397637795275
 10
7.1751968503937
 20
10.2765748031496
 10
7.1751968503937
 20
10.22834645669291
 10
7.1751968503937
 20
10.17125984251968
 10
7.1751968503937
 20
10.11023622047244
  0
LINE
  5
2092
330
1E
100
AcDbEntity
  8
0
100
AcDbLine
 10
7.1751968503937
 20
7.820866141732283
 30
0.0
 11
7.1751968503937
 21
10.11023622047244
 31
0.0
  0
LWPOLYLINE
  5
2093
330
1E
100
AcDbEntity
  8
0
100
AcDbPolyline
 90
        7
 70
     0
 43
0.0
 10
7.1751968503937
 20
7.820866141732283
 10
7.1751968503937
 20
7.759842519685038
 10
7.1751968503937
 20
7.702755905511811
 10
7.1751968503937
 20
7.654527559055117
 10
7.1751968503937
 20
7.617125984251968
 10
7.1751968503937
 20
7.593503937007874
 10
7.1751968503937
 20
7.585629921259842
  0
LINE
  5
209C
330
1E
100
AcDbEntity
  8
0
100
AcDbLine
 10
6.54527559055118
 20
7.820866141732283
 30
0.0
 11
6.54527559055118
 21
10.11023622047244
 31
0.0
  0
LWPOLYLINE
  5
209D
330
1E
100
AcDbEntity
  8
0
100
AcDbPolyline
 90
        5
 70
     0
 43
0.0
 10
6.54527559055118
 20
10.11023622047244
 10
6.54527559055118
 20
10.1505905511811
 10
6.54527559055118
 20
10.18503937007874
 10
6.54527559055118
 20
10.20767716535433
 10
6.54527559055118
 20
10.21555118110236
  0
LWPOLYLINE
  5
20A4
330
1E
100
AcDbEntity
  8
0
100
AcDbPolyline
 90
        5
 70
     0
 43
0.0
 10
6.54527559055118
 20
7.715551181102362
 10
6.54527559055118
 20
7.723425196850393
 10
6.54527559055118
 20
7.746062992125984
 10
6.54527559055118
 20
7.780511811023622
 10
6.54527559055118
 20
7.820866141732283
  0
LINE
  5
20AB
330
1E
100
AcDbEntity
  8
0
100
AcDbLine
 10
7.1751968503937
 20
7.585629921259842
 30
0.0
 11
6.6751968503937
 21
7.585629921259842
 31
0.0
  0
LINE
  5
20AC
330
1E
100
AcDbEntity
  8
0
100
AcDbLine
 10
6.6751968503937
 20
10.34547244094488
 30
0.0
 11
7.1751968503937
 21
10.34547244094488
 31
0.0
  0
LINE
  5
20AD
330
1E
100
AcDbEntity
  8
0
100
AcDbLine
 10
7.1751968503937
 20
10.11023622047244
 30
0.0
 11
6.6751968503937
 21
10.11023622047244
 31
0.0
  0
LINE
  5
20AE
330
1E
100
AcDbEntity
  8
0
100
AcDbLine
 10
6.6751968503937
 20
10.11023622047244
 30
0.0
 11
6.6751968503937
 21
7.820866141732283
 31
0.0
  0
LINE
  5
20AF
330
1E
100
AcDbEntity
  8
0
100
AcDbLine
 10
6.6751968503937
 20
7.820866141732283
 30
0.0
 11
7.1751968503937
 21
7.820866141732283
 31
0.0
  0
LWPOLYLINE
  5
20B0
330
1E
100
AcDbEntity
  8
0
100
AcDbPolyline
 90
        7
 70
     0
 43
0.0
 10
6.6751968503937
 20
7.820866141732283
 10
6.6751968503937
 20
7.759842519685038
 10
6.6751968503937
 20
7.702755905511811
 10
6.6751968503937
 20
7.654527559055117
 10
6.6751968503937
 20
7.617125984251968
 10
6.6751968503937
 20
7.593503937007874
 10
6.6751968503937
 20
7.585629921259842
  0
LWPOLYLINE
  5
20B9
330
1E
100
AcDbEntity
  8
0
100
AcDbPolyline
 90
        7
 70
     0
 43
0.0
 10
6.6751968503937
 20
10.34547244094488
 10
6.6751968503937
 20
10.33759842519685
 10
6.6751968503937
 20
10.31397637795275
 10
6.6751968503937
 20
10.2765748031496
 10
6.6751968503937
 20
10.22834645669291
 10
6.6751968503937
 20
10.17125984251968
 10
6.6751968503937
 20
10.11023622047244
  0
LWPOLYLINE
  5
20C2
330
1E
100
AcDbEntity
  8
0
100
AcDbPolyline
 90
        5
 70
     0
 43
0.0
 10
6.54527559055118
 20
7.715551181102362
 10
6.55511811023622
 20
7.666338582677164
 10
6.58267716535433
 20
7.624015748031496
 10
6.625
 20
7.595472440944881
 10
6.6751968503937
 20
7.585629921259842
  0
LWPOLYLINE
  5
20C9
330
1E
100
AcDbEntity
  8
0
100
AcDbPolyline
 90
        5
 70
     0
 43
0.0
 10
6.54527559055118
 20
7.820866141732283
 10
6.55511811023622
 20
7.820866141732283
 10
6.58267716535433
 20
7.820866141732283
 10
6.625
 20
7.820866141732283
 10
6.6751968503937
 20
7.820866141732283
  0
LWPOLYLINE
  5
20D0
330
1E
100
AcDbEntity
  8
0
100
AcDbPolyline
 90
        5
 70
     0
 43
0.0
 10
6.54527559055118
 20
10.11023622047244
 10
6.55511811023622
 20
10.11023622047244
 10
6.58267716535433
 20
10.11023622047244
 10
6.625
 20
10.11023622047244
 10
6.6751968503937
 20
10.11023622047244
  0
LWPOLYLINE
  5
20D7
330
1E
100
AcDbEntity
  8
0
100
AcDbPolyline
 90
        5
 70
     0
 43
0.0
 10
6.6751968503937
 20
10.34547244094488
 10
6.625
 20
10.33562992125984
 10
6.58267716535433
 20
10.30807086614173
 10
6.55511811023622
 20
10.26574803149606
 10
6.54527559055118
 20
10.21555118110236
  0
LINE
  5
20DE
330
1E
100
AcDbEntity
  8
0
100
AcDbLine
 10
7.214566929133858
 20
7.585629921259842
 30
0.0
 11
7.1751968503937
 21
7.585629921259842
 31
0.0
  0
LINE
  5
20DF
330
1E
100
AcDbEntity
  8
0
100
AcDbLine
 10
7.214566929133858
 20
10.34547244094488
 30
0.0
 11
7.1751968503937
 21
10.34547244094488
 31
0.0
  0
LWPOLYLINE
  5
20E0
330
1E
100
AcDbEntity
  8
0
100
AcDbPolyline
 90
        7
 70
     0
 43
0.0
 10
7.1751968503937
 20
10.34547244094488
 10
7.1751968503937
 20
10.33759842519685
 10
7.1751968503937
 20
10.31397637795275
 10
7.1751968503937
 20
10.2765748031496
 10
7.1751968503937
 20
10.22834645669291
 10
7.1751968503937
 20
10.17125984251968
 10
7.1751968503937
 20
10.11023622047244
  0
LINE
  5
20E9
330
1E
100
AcDbEntity
  8
0
100
AcDbLine
 10
7.214566929133858
 20
10.11023622047244
 30
0.0
 11
7.1751968503937
 21
10.11023622047244
 31
0.0
  0
LWPOLYLINE
  5
20EA
330
1E
100
AcDbEntity
  8
0
100
AcDbPolyline
 90
        7
 70
     0
 43
0.0
 10
7.214566929133858
 20
10.34547244094488
 10
7.214566929133858
 20
10.33759842519685
 10
7.214566929133858
 20
10.31397637795275
 10
7.214566929133858
 20
10.2765748031496
 10
7.214566929133858
 20
10.22834645669291
 10
7.214566929133858
 20
10.17125984251968
 10
7.214566929133858
 20
10.11023622047244
  0
LINE
  5
20F3
330
1E
100
AcDbEntity
  8
0
100
AcDbLine
 10
7.1751968503937
 20
7.820866141732283
 30
0.0
 11
7.1751968503937
 21
10.11023622047244
 31
0.0
  0
LINE
  5
20F4
330
1E
100
AcDbEntity
  8
0
100
AcDbLine
 10
7.214566929133858
 20
7.820866141732283
 30
0.0
 11
7.1751968503937
 21
7.820866141732283
 31
0.0
  0
LINE
  5
20F5
330
1E
100
AcDbEntity
  8
0
100
AcDbLine
 10
7.214566929133858
 20
7.820866141732283
 30
0.0
 11
7.214566929133858
 21
10.11023622047244
 31
0.0
  0
LWPOLYLINE
  5
20F6
330
1E
100
AcDbEntity
  8
0
100
AcDbPolyline
 90
        7
 70
     0
 43
0.0
 10
7.1751968503937
 20
7.820866141732283
 10
7.1751968503937
 20
7.759842519685038
 10
7.1751968503937
 20
7.702755905511811
 10
7.1751968503937
 20
7.654527559055117
 10
7.1751968503937
 20
7.617125984251968
 10
7.1751968503937
 20
7.593503937007874
 10
7.1751968503937
 20
7.585629921259842
  0
LWPOLYLINE
  5
20FF
330
1E
100
AcDbEntity
  8
0
100
AcDbPolyline
 90
        7
 70
     0
 43
0.0
 10
7.214566929133858
 20
7.820866141732283
 10
7.214566929133858
 20
7.759842519685038
 10
7.214566929133858
 20
7.702755905511811
 10
7.214566929133858
 20
7.654527559055117
 10
7.214566929133858
 20
7.617125984251968
 10
7.214566929133858
 20
7.593503937007874
 10
7.214566929133858
 20
7.585629921259842
  0
LWPOLYLINE
  5
2108
330
1E
100
AcDbEntity
  8
0
100
AcDbPolyline
 90
       13
 70
     0
 43
0.0
 10
9.894685039370077
 20
9.557086614173227
 10
9.903543307086614
 20
9.589566929133857
 10
9.927165354330709
 20
9.613188976377951
 10
9.959645669291338
 20
9.622047244094488
 10
9.992125984251968
 20
9.613188976377951
 10
10.01574803149606
 20
9.589566929133857
 10
10.02460629921259
 20
9.557086614173227
 10
10.01574803149606
 20
9.524606299212598
 10
9.992125984251968
 20
9.500984251968503
 10
9.959645669291338
 20
9.492125984251968
 10
9.927165354330709
 20
9.500984251968503
 10
9.903543307086614
 20
9.524606299212598
 10
9.894685039370077
 20
9.557086614173227
  0
LWPOLYLINE
  5
2117
330
1E
100
AcDbEntity
  8
0
100
AcDbPolyline
 90
       13
 70
     0
 43
0.0
 10
10.81496062992125
 20
9.298228346456692
 10
10.82283464566929
 20
9.330708661417322
 10
10.84744094488188
 20
9.354330708661416
 10
10.87992125984251
 20
9.363188976377951
 10
10.91240157480314
 20
9.354330708661416
 10
10.93602362204724
 20
9.330708661417322
 10
10.94488188976377
 20
9.298228346456692
 10
10.93602362204724
 20
9.265748031496062
 10
10.91240157480314
 20
9.242125984251968
 10
10.87992125984251
 20
9.233267716535433
 10
10.84744094488188
 20
9.242125984251968
 10
10.82283464566929
 20
9.265748031496062
 10
10.81496062992125
 20
9.298228346456692
  0
LWPOLYLINE
  5
2126
330
1E
100
AcDbEntity
  8
0
100
AcDbPolyline
 90
       13
 70
     0
 43
0.0
 10
10.35433070866141
 20
9.86023622047244
 10
10.36318897637795
 20
9.89271653543307
 10
10.38681102362204
 20
9.917322834645668
 10
10.41929133858267
 20
9.926181102362203
 10
10.4517716535433
 20
9.917322834645668
 10
10.4753937007874
 20
9.89271653543307
 10
10.48425196850393
 20
9.86023622047244
 10
10.4753937007874
 20
9.827755905511811
 10
10.4517716535433
 20
9.804133858267716
 10
10.41929133858267
 20
9.795275590551181
 10
10.38681102362204
 20
9.804133858267716
 10
10.36318897637795
 20
9.827755905511811
 10
10.35433070866141
 20
9.86023622047244
  0
LWPOLYLINE
  5
2135
330
1E
100
AcDbEntity
  8
0
100
AcDbPolyline
 90
       13
 70
     0
 43
0.0
 10
10.35433070866141
 20
8.070866141732283
 10
10.36318897637795
 20
8.103346456692912
 10
10.38681102362204
 20
8.126968503937007
 10
10.41929133858267
 20
8.135826771653542
 10
10.4517716535433
 20
8.126968503937007
 10
10.4753937007874
 20
8.103346456692912
 10
10.48425196850393
 20
8.070866141732283
 10
10.4753937007874
 20
8.038385826771653
 10
10.4517716535433
 20
8.014763779527559
 10
10.41929133858267
 20
8.005905511811024
 10
10.38681102362204
 20
8.014763779527559
 10
10.36318897637795
 20
8.038385826771653
 10
10.35433070866141
 20
8.070866141732283
  0
LINE
  5
2144
330
1E
100
AcDbEntity
  8
0
100
AcDbLine
 10
11.09448818897637
 20
9.012795275590551
 30
0.0
 11
11.09448818897637
 21
9.468503937007874
 31
0.0
  0
LINE
  5
2145
330
1E
100
AcDbEntity
  8
0
100
AcDbLine
 10
11.09448818897637
 20
9.530511811023622
 30
0.0
 11
11.09448818897637
 21
9.746062992125983
 31
0.0
  0
LWPOLYLINE
  5
2146
330
1E
100
AcDbEntity
  8
0
100
AcDbPolyline
 90
        3
 70
     0
 43
0.0
 10
11.09448818897637
 20
9.746062992125983
 10
11.08366141732283
 20
9.780511811023622
 10
11.05413385826771
 20
9.802165354330709
  0
LWPOLYLINE
  5
214B
330
1E
100
AcDbEntity
  8
0
100
AcDbPolyline
 90
        5
 70
     0
 43
0.0
 10
11.05413385826771
 20
9.802165354330709
 10
10.99015748031496
 20
9.832677165354331
 10
10.93503937007874
 20
9.876968503937007
 10
10.89173228346456
 20
9.931102362204724
 10
10.86122047244094
 20
9.995078740157479
  0
LWPOLYLINE
  5
2152
330
1E
100
AcDbEntity
  8
0
100
AcDbPolyline
 90
        3
 70
     0
 43
0.0
 10
10.86122047244094
 20
9.995078740157479
 10
10.83956692913385
 20
10.02460629921259
 10
10.80413385826771
 20
10.03543307086614
  0
LINE
  5
2157
330
1E
100
AcDbEntity
  8
0
100
AcDbLine
 10
10.80413385826771
 20
10.03543307086614
 30
0.0
 11
10.03444881889763
 21
10.03543307086614
 31
0.0
  0
LWPOLYLINE
  5
2158
330
1E
100
AcDbEntity
  8
0
100
AcDbPolyline
 90
        3
 70
     0
 43
0.0
 10
10.03444881889763
 20
10.03543307086614
 10
10.0
 20
10.02460629921259
 10
9.977362204724409
 20
9.995078740157479
  0
LWPOLYLINE
  5
215D
330
1E
100
AcDbEntity
  8
0
100
AcDbPolyline
 90
        5
 70
     0
 43
0.0
 10
9.977362204724409
 20
9.995078740157479
 10
9.94783464566929
 20
9.931102362204724
 10
9.903543307086614
 20
9.876968503937007
 10
9.848425196850394
 20
9.832677165354331
 10
9.78543307086614
 20
9.802165354330709
  0
LWPOLYLINE
  5
2164
330
1E
100
AcDbEntity
  8
0
100
AcDbPolyline
 90
        3
 70
     0
 43
0.0
 10
9.78543307086614
 20
9.802165354330709
 10
9.755905511811024
 20
9.780511811023622
 10
9.744094488188975
 20
9.746062992125983
  0
LINE
  5
2169
330
1E
100
AcDbEntity
  8
0
100
AcDbLine
 10
9.744094488188975
 20
9.746062992125983
 30
0.0
 11
9.744094488188975
 21
9.271653543307087
 31
0.0
  0
LINE
  5
216A
330
1E
100
AcDbEntity
  8
0
100
AcDbLine
 10
9.744094488188975
 20
9.209645669291338
 30
0.0
 11
9.744094488188975
 21
8.186023622047244
 31
0.0
  0
LWPOLYLINE
  5
216B
330
1E
100
AcDbEntity
  8
0
100
AcDbPolyline
 90
        3
 70
     0
 43
0.0
 10
9.744094488188975
 20
8.186023622047244
 10
9.755905511811024
 20
8.150590551181101
 10
9.78543307086614
 20
8.128937007874014
  0
LWPOLYLINE
  5
2170
330
1E
100
AcDbEntity
  8
0
100
AcDbPolyline
 90
        5
 70
     0
 43
0.0
 10
9.78543307086614
 20
8.128937007874014
 10
9.848425196850394
 20
8.098425196850394
 10
9.903543307086614
 20
8.05511811023622
 10
9.94783464566929
 20
8.0
 10
9.977362204724409
 20
7.936023622047243
  0
LWPOLYLINE
  5
2177
330
1E
100
AcDbEntity
  8
0
100
AcDbPolyline
 90
        3
 70
     0
 43
0.0
 10
9.977362204724409
 20
7.936023622047243
 10
10.0
 20
7.906496062992125
 10
10.03444881889763
 20
7.895669291338582
  0
LINE
  5
217C
330
1E
100
AcDbEntity
  8
0
100
AcDbLine
 10
10.03444881889763
 20
7.895669291338582
 30
0.0
 11
10.80413385826771
 21
7.895669291338582
 31
0.0
  0
LWPOLYLINE
  5
217D
330
1E
100
AcDbEntity
  8
0
100
AcDbPolyline
 90
        3
 70
     0
 43
0.0
 10
10.80413385826771
 20
7.895669291338582
 10
10.83956692913385
 20
7.906496062992125
 10
10.86122047244094
 20
7.936023622047243
  0
LWPOLYLINE
  5
2182
330
1E
100
AcDbEntity
  8
0
100
AcDbPolyline
 90
        5
 70
     0
 43
0.0
 10
10.86122047244094
 20
7.936023622047243
 10
10.89173228346456
 20
8.0
 10
10.93503937007874
 20
8.05511811023622
 10
10.99015748031496
 20
8.098425196850394
 10
11.05413385826771
 20
8.128937007874014
  0
LWPOLYLINE
  5
2189
330
1E
100
AcDbEntity
  8
0
100
AcDbPolyline
 90
        3
 70
     0
 43
0.0
 10
11.05413385826771
 20
8.128937007874014
 10
11.08366141732283
 20
8.150590551181101
 10
11.09448818897637
 20
8.186023622047244
  0
LINE
  5
218E
330
1E
100
AcDbEntity
  8
0
100
AcDbLine
 10
11.09448818897637
 20
8.186023622047244
 30
0.0
 11
11.09448818897637
 21
8.950787401574803
 31
0.0
  0
LINE
  5
218F
330
1E
100
AcDbEntity
  8
0
100
AcDbLine
 10
11.15452755905511
 20
8.93503937007874
 30
0.0
 11
10.28641732283464
 21
9.167322834645668
 31
0.0
  0
LINE
  5
2190
330
1E
100
AcDbEntity
  8
0
100
AcDbLine
 10
11.15452755905511
 20
8.997047244094488
 30
0.0
 11
10.30216535433071
 21
9.225393700787401
 31
0.0
  0
LINE
  5
2191
330
1E
100
AcDbEntity
  8
0
100
AcDbLine
 10
10.30216535433071
 20
9.225393700787401
 30
0.0
 11
10.28641732283464
 21
9.167322834645668
 31
0.0
  0
LINE
  5
2192
330
1E
100
AcDbEntity
  8
0
100
AcDbLine
 10
11.15452755905511
 20
9.452755905511811
 30
0.0
 11
10.28641732283464
 21
9.68503937007874
 31
0.0
  0
LINE
  5
2193
330
1E
100
AcDbEntity
  8
0
100
AcDbLine
 10
11.15452755905511
 20
9.514763779527559
 30
0.0
 11
10.30216535433071
 21
9.743110236220472
 31
0.0
  0
LINE
  5
2194
330
1E
100
AcDbEntity
  8
0
100
AcDbLine
 10
10.30216535433071
 20
9.743110236220472
 30
0.0
 11
10.28641732283464
 21
9.68503937007874
 31
0.0
  0
LINE
  5
2195
330
1E
100
AcDbEntity
  8
0
100
AcDbLine
 10
10.55314960629921
 20
9.426181102362203
 30
0.0
 11
9.684055118110235
 21
9.193897637795275
 31
0.0
  0
LINE
  5
2196
330
1E
100
AcDbEntity
  8
0
100
AcDbLine
 10
10.53740157480315
 20
9.484251968503937
 30
0.0
 11
9.684055118110235
 21
9.255905511811024
 31
0.0
  0
LINE
  5
2197
330
1E
100
AcDbEntity
  8
0
100
AcDbLine
 10
10.53740157480315
 20
9.484251968503937
 30
0.0
 11
10.55314960629921
 21
9.426181102362203
 31
0.0
  0
LWPOLYLINE
  5
2198
330
1E
100
AcDbEntity
  8
0
100
AcDbPolyline
 90
        4
 70
     0
 43
0.0
 10
9.684055118110235
 20
9.746062992125983
 10
9.692913385826772
 20
9.746062992125983
 10
9.714566929133857
 20
9.746062992125983
 10
9.744094488188975
 20
9.746062992125983
  0
LWPOLYLINE
  5
219E
330
1E
100
AcDbEntity
  8
0
100
AcDbPolyline
 90
        4
 70
     0
 43
0.0
 10
9.765748031496062
 20
9.859251968503937
 10
9.76771653543307
 20
9.851377952755905
 10
9.775590551181101
 20
9.830708661417322
 10
9.78543307086614
 20
9.802165354330709
  0
LWPOLYLINE
  5
21A4
330
1E
100
AcDbEntity
  8
0
100
AcDbPolyline
 90
        4
 70
     0
 43
0.0
 10
9.921259842519685
 20
10.01476377952756
 10
9.928149606299212
 20
10.01181102362204
 10
9.949803149606298
 20
10.00492125984252
 10
9.977362204724409
 20
9.995078740157479
  0
LWPOLYLINE
  5
21AA
330
1E
100
AcDbEntity
  8
0
100
AcDbPolyline
 90
        4
 70
     0
 43
0.0
 10
10.03444881889763
 20
10.09547244094488
 10
10.03444881889763
 20
10.08759842519685
 10
10.03444881889763
 20
10.06594488188976
 10
10.03444881889763
 20
10.03543307086614
  0
LINE
  5
21B0
330
1E
100
AcDbEntity
  8
0
100
AcDbLine
 10
10.74212598425196
 20
10.04527559055118
 30
0.0
 11
10.65944881889763
 21
10.04527559055118
 31
0.0
  0
LWPOLYLINE
  5
21B1
330
1E
100
AcDbEntity
  8
0
100
AcDbPolyline
 90
        3
 70
     0
 43
0.0
 10
10.65944881889763
 20
10.04527559055118
 10
10.65944881889763
 20
10.08169291338582
 10
10.65944881889763
 20
10.09547244094488
  0
LWPOLYLINE
  5
21B6
330
1E
100
AcDbEntity
  8
0
100
AcDbPolyline
 90
        3
 70
     0
 43
0.0
 10
10.55511811023622
 20
10.09547244094488
 10
10.55511811023622
 20
10.08169291338582
 10
10.55511811023622
 20
10.04527559055118
  0
LINE
  5
21BB
330
1E
100
AcDbEntity
  8
0
100
AcDbLine
 10
10.55511811023622
 20
10.04527559055118
 30
0.0
 11
10.47145669291338
 21
10.04527559055118
 31
0.0
  0
LWPOLYLINE
  5
21BC
330
1E
100
AcDbEntity
  8
0
100
AcDbPolyline
 90
        3
 70
     0
 43
0.0
 10
10.47145669291338
 20
10.04527559055118
 10
10.47145669291338
 20
10.08169291338582
 10
10.47145669291338
 20
10.09547244094488
  0
LWPOLYLINE
  5
21C1
330
1E
100
AcDbEntity
  8
0
100
AcDbPolyline
 90
        3
 70
     0
 43
0.0
 10
10.36712598425196
 20
10.09547244094488
 10
10.36712598425196
 20
10.08169291338582
 10
10.36712598425196
 20
10.04527559055118
  0
LINE
  5
21C6
330
1E
100
AcDbEntity
  8
0
100
AcDbLine
 10
10.36712598425196
 20
10.04527559055118
 30
0.0
 11
10.28444881889763
 21
10.04527559055118
 31
0.0
  0
LWPOLYLINE
  5
21C7
330
1E
100
AcDbEntity
  8
0
100
AcDbPolyline
 90
        3
 70
     0
 43
0.0
 10
10.28444881889763
 20
10.04527559055118
 10
10.28444881889763
 20
10.08169291338582
 10
10.28444881889763
 20
10.09547244094488
  0
LWPOLYLINE
  5
21CC
330
1E
100
AcDbEntity
  8
0
100
AcDbPolyline
 90
        3
 70
     0
 43
0.0
 10
10.18011811023622
 20
10.09547244094488
 10
10.18011811023622
 20
10.08169291338582
 10
10.18011811023622
 20
10.04527559055118
  0
LINE
  5
21D1
330
1E
100
AcDbEntity
  8
0
100
AcDbLine
 10
10.18011811023622
 20
10.04527559055118
 30
0.0
 11
10.09645669291338
 21
10.04527559055118
 31
0.0
  0
LWPOLYLINE
  5
21D2
330
1E
100
AcDbEntity
  8
0
100
AcDbPolyline
 90
        3
 70
     0
 43
0.0
 10
10.09645669291338
 20
10.04527559055118
 10
10.09645669291338
 20
10.08169291338582
 10
10.09645669291338
 20
10.09547244094488
  0
LWPOLYLINE
  5
21D7
330
1E
100
AcDbEntity
  8
0
100
AcDbPolyline
 90
        4
 70
     0
 43
0.0
 10
10.80413385826771
 20
10.09547244094488
 10
10.80413385826771
 20
10.08759842519685
 10
10.80413385826771
 20
10.06594488188976
 10
10.80413385826771
 20
10.03543307086614
  0
LWPOLYLINE
  5
21DD
330
1E
100
AcDbEntity
  8
0
100
AcDbPolyline
 90
        3
 70
     0
 43
0.0
 10
10.74212598425196
 20
10.09547244094488
 10
10.74212598425196
 20
10.08169291338582
 10
10.74212598425196
 20
10.04527559055118
  0
LWPOLYLINE
  5
21E2
330
1E
100
AcDbEntity
  8
0
100
AcDbPolyline
 90
        4
 70
     0
 43
0.0
 10
10.91830708661417
 20
10.01476377952756
 10
10.91043307086614
 20
10.01181102362204
 10
10.88976377952755
 20
10.00492125984252
 10
10.86122047244094
 20
9.995078740157479
  0
LWPOLYLINE
  5
21E8
330
1E
100
AcDbEntity
  8
0
100
AcDbPolyline
 90
        4
 70
     0
 43
0.0
 10
11.07381889763779
 20
9.859251968503937
 10
11.07086614173228
 20
9.851377952755905
 10
11.06397637795275
 20
9.830708661417322
 10
11.05413385826771
 20
9.802165354330709
  0
LWPOLYLINE
  5
21EE
330
1E
100
AcDbEntity
  8
0
100
AcDbPolyline
 90
        4
 70
     0
 43
0.0
 10
11.15452755905511
 20
9.746062992125983
 10
11.14665354330708
 20
9.746062992125983
 10
11.12401574803149
 20
9.746062992125983
 10
11.09448818897637
 20
9.746062992125983
  0
LWPOLYLINE
  5
21F4
330
1E
100
AcDbEntity
  8
0
100
AcDbPolyline
 90
        4
 70
     0
 43
0.0
 10
11.15452755905511
 20
8.186023622047244
 10
11.14665354330708
 20
8.186023622047244
 10
11.12401574803149
 20
8.186023622047244
 10
11.09448818897637
 20
8.186023622047244
  0
LWPOLYLINE
  5
21FA
330
1E
100
AcDbEntity
  8
0
100
AcDbPolyline
 90
        4
 70
     0
 43
0.0
 10
11.07381889763779
 20
8.071850393700787
 10
11.07086614173228
 20
8.079724409448818
 10
11.06397637795275
 20
8.100393700787401
 10
11.05413385826771
 20
8.128937007874014
  0
LWPOLYLINE
  5
2200
330
1E
100
AcDbEntity
  8
0
100
AcDbPolyline
 90
        4
 70
     0
 43
0.0
 10
10.91830708661417
 20
7.916338582677164
 10
10.91043307086614
 20
7.919291338582676
 10
10.88976377952755
 20
7.926181102362204
 10
10.86122047244094
 20
7.936023622047243
  0
LWPOLYLINE
  5
2206
330
1E
100
AcDbEntity
  8
0
100
AcDbPolyline
 90
        4
 70
     0
 43
0.0
 10
10.80413385826771
 20
7.835629921259842
 10
10.80413385826771
 20
7.843503937007874
 10
10.80413385826771
 20
7.866141732283464
 10
10.80413385826771
 20
7.895669291338582
  0
LWPOLYLINE
  5
220C
330
1E
100
AcDbEntity
  8
0
100
AcDbPolyline
 90
        4
 70
     0
 43
0.0
 10
10.03444881889763
 20
7.835629921259842
 10
10.03444881889763
 20
7.843503937007874
 10
10.03444881889763
 20
7.866141732283464
 10
10.03444881889763
 20
7.895669291338582
  0
LWPOLYLINE
  5
2212
330
1E
100
AcDbEntity
  8
0
100
AcDbPolyline
 90
        4
 70
     0
 43
0.0
 10
9.921259842519685
 20
7.916338582677164
 10
9.928149606299212
 20
7.919291338582676
 10
9.949803149606298
 20
7.926181102362204
 10
9.977362204724409
 20
7.936023622047243
  0
LWPOLYLINE
  5
2218
330
1E
100
AcDbEntity
  8
0
100
AcDbPolyline
 90
        4
 70
     0
 43
0.0
 10
9.765748031496062
 20
8.071850393700787
 10
9.76771653543307
 20
8.079724409448818
 10
9.775590551181101
 20
8.100393700787401
 10
9.78543307086614
 20
8.128937007874014
  0
LWPOLYLINE
  5
221E
330
1E
100
AcDbEntity
  8
0
100
AcDbPolyline
 90
        4
 70
     0
 43
0.0
 10
9.684055118110235
 20
8.186023622047244
 10
9.692913385826772
 20
8.186023622047244
 10
9.714566929133857
 20
8.186023622047244
 10
9.744094488188975
 20
8.186023622047244
  0
LINE
  5
2224
330
1E
100
AcDbEntity
  8
0
100
AcDbLine
 10
11.16929133858267
 20
7.585629921259842
 30
0.0
 11
9.669291338582677
 21
7.585629921259842
 31
0.0
  0
LWPOLYLINE
  5
2225
330
1E
100
AcDbEntity
  8
0
100
AcDbPolyline
 90
        7
 70
     0
 43
0.0
 10
11.16929133858267
 20
7.585629921259842
 10
11.23031496062992
 20
7.593503937007874
 10
11.28740157480315
 20
7.617125984251968
 10
11.33562992125984
 20
7.654527559055117
 10
11.37303149606299
 20
7.702755905511811
 10
11.39665354330708
 20
7.759842519685038
 10
11.40452755905511
 20
7.820866141732283
  0
LINE
  5
222E
330
1E
100
AcDbEntity
  8
0
100
AcDbLine
 10
11.40452755905511
 20
10.11023622047244
 30
0.0
 11
11.40452755905511
 21
7.820866141732283
 31
0.0
  0
LWPOLYLINE
  5
222F
330
1E
100
AcDbEntity
  8
0
100
AcDbPolyline
 90
        7
 70
     0
 43
0.0
 10
11.40452755905511
 20
10.11023622047244
 10
11.39665354330708
 20
10.17125984251968
 10
11.37303149606299
 20
10.22834645669291
 10
11.33562992125984
 20
10.2765748031496
 10
11.28740157480315
 20
10.31397637795275
 10
11.23031496062992
 20
10.33759842519685
 10
11.16929133858267
 20
10.34547244094488
  0
LINE
  5
2238
330
1E
100
AcDbEntity
  8
0
100
AcDbLine
 10
9.669291338582677
 20
10.34547244094488
 30
0.0
 11
11.16929133858267
 21
10.34547244094488
 31
0.0
  0
LWPOLYLINE
  5
2239
330
1E
100
AcDbEntity
  8
0
100
AcDbPolyline
 90
        7
 70
     0
 43
0.0
 10
9.669291338582677
 20
10.34547244094488
 10
9.608267716535433
 20
10.33759842519685
 10
9.552165354330709
 20
10.31397637795275
 10
9.502952755905511
 20
10.2765748031496
 10
9.465551181102362
 20
10.22834645669291
 10
9.442913385826772
 20
10.17125984251968
 10
9.434055118110235
 20
10.11023622047244
  0
LINE
  5
2242
330
1E
100
AcDbEntity
  8
0
100
AcDbLine
 10
9.434055118110235
 20
7.820866141732283
 30
0.0
 11
9.434055118110235
 21
10.11023622047244
 31
0.0
  0
LWPOLYLINE
  5
2243
330
1E
100
AcDbEntity
  8
0
100
AcDbPolyline
 90
        4
 70
     0
 43
0.0
 10
11.07381889763779
 20
8.071850393700787
 10
11.00688976377952
 20
8.037401574803149
 10
10.95275590551181
 20
7.983267716535433
 10
10.91830708661417
 20
7.916338582677164
  0
LWPOLYLINE
  5
2249
330
1E
100
AcDbEntity
  8
0
100
AcDbPolyline
 90
        4
 70
     0
 43
0.0
 10
10.91830708661417
 20
7.916338582677164
 10
10.89271653543307
 20
7.874015748031496
 10
10.85236220472441
 20
7.845472440944881
 10
10.80413385826771
 20
7.835629921259842
  0
LINE
  5
224F
330
1E
100
AcDbEntity
  8
0
100
AcDbLine
 10
10.80413385826771
 20
7.835629921259842
 30
0.0
 11
10.03444881889763
 21
7.835629921259842
 31
0.0
  0
LWPOLYLINE
  5
2250
330
1E
100
AcDbEntity
  8
0
100
AcDbPolyline
 90
        4
 70
     0
 43
0.0
 10
10.03444881889763
 20
7.835629921259842
 10
9.986220472440944
 20
7.845472440944881
 10
9.945866141732283
 20
7.874015748031496
 10
9.921259842519685
 20
7.916338582677164
  0
LWPOLYLINE
  5
2256
330
1E
100
AcDbEntity
  8
0
100
AcDbPolyline
 90
        4
 70
     0
 43
0.0
 10
9.921259842519685
 20
7.916338582677164
 10
9.885826771653542
 20
7.983267716535433
 10
9.832677165354331
 20
8.037401574803149
 10
9.765748031496062
 20
8.071850393700787
  0
LWPOLYLINE
  5
225C
330
1E
100
AcDbEntity
  8
0
100
AcDbPolyline
 90
        4
 70
     0
 43
0.0
 10
9.765748031496062
 20
8.071850393700787
 10
9.723425196850394
 20
8.097440944881888
 10
9.694881889763779
 20
8.137795275590551
 10
9.684055118110235
 20
8.186023622047244
  0
LINE
  5
2262
330
1E
100
AcDbEntity
  8
0
100
AcDbLine
 10
9.684055118110235
 20
8.186023622047244
 30
0.0
 11
9.684055118110235
 21
9.746062992125983
 31
0.0
  0
LWPOLYLINE
  5
2263
330
1E
100
AcDbEntity
  8
0
100
AcDbPolyline
 90
        4
 70
     0
 43
0.0
 10
9.684055118110235
 20
9.746062992125983
 10
9.694881889763779
 20
9.794291338582677
 10
9.723425196850394
 20
9.833661417322835
 10
9.765748031496062
 20
9.859251968503937
  0
LWPOLYLINE
  5
2269
330
1E
100
AcDbEntity
  8
0
100
AcDbPolyline
 90
        4
 70
     0
 43
0.0
 10
9.765748031496062
 20
9.859251968503937
 10
9.832677165354331
 20
9.894685039370077
 10
9.885826771653542
 20
9.94783464566929
 10
9.921259842519685
 20
10.01476377952756
  0
LWPOLYLINE
  5
226F
330
1E
100
AcDbEntity
  8
0
100
AcDbPolyline
 90
        4
 70
     0
 43
0.0
 10
9.921259842519685
 20
10.01476377952756
 10
9.945866141732283
 20
10.05708661417322
 10
9.986220472440944
 20
10.08562992125984
 10
10.03444881889763
 20
10.09547244094488
  0
LINE
  5
2275
330
1E
100
AcDbEntity
  8
0
100
AcDbLine
 10
10.80413385826771
 20
10.09547244094488
 30
0.0
 11
10.03444881889763
 21
10.09547244094488
 31
0.0
  0
LWPOLYLINE
  5
2276
330
1E
100
AcDbEntity
  8
0
100
AcDbPolyline
 90
        4
 70
     0
 43
0.0
 10
10.80413385826771
 20
10.09547244094488
 10
10.85236220472441
 20
10.08562992125984
 10
10.89271653543307
 20
10.05708661417322
 10
10.91830708661417
 20
10.01476377952756
  0
LWPOLYLINE
  5
227C
330
1E
100
AcDbEntity
  8
0
100
AcDbPolyline
 90
        4
 70
     0
 43
0.0
 10
10.91830708661417
 20
10.01476377952756
 10
10.95275590551181
 20
9.94783464566929
 10
11.00688976377952
 20
9.894685039370077
 10
11.07381889763779
 20
9.859251968503937
  0
LWPOLYLINE
  5
2282
330
1E
100
AcDbEntity
  8
0
100
AcDbPolyline
 90
        4
 70
     0
 43
0.0
 10
11.07381889763779
 20
9.859251968503937
 10
11.11614173228346
 20
9.833661417322835
 10
11.14468503937007
 20
9.794291338582677
 10
11.15452755905511
 20
9.746062992125983
  0
LINE
  5
2288
330
1E
100
AcDbEntity
  8
0
100
AcDbLine
 10
11.15452755905511
 20
8.186023622047244
 30
0.0
 11
11.15452755905511
 21
9.746062992125983
 31
0.0
  0
LWPOLYLINE
  5
2289
330
1E
100
AcDbEntity
  8
0
100
AcDbPolyline
 90
       15
 70
     0
 43
0.0
 10
9.579724409448818
 20
10.10531496062992
 10
9.588582677165353
 20
10.14468503937007
 10
9.613188976377951
 20
10.1761811023622
 10
9.649606299212598
 20
10.19389763779527
 10
9.689960629921259
 20
10.19389763779527
 10
9.725393700787401
 20
10.1761811023622
 10
9.750984251968503
 20
10.14468503937007
 10
9.759842519685038
 20
10.10531496062992
 10
9.750984251968503
 20
10.06692913385826
 10
9.725393700787401
 20
10.03543307086614
 10
9.689960629921259
 20
10.01771653543306
 10
9.649606299212598
 20
10.01771653543306
 10
9.613188976377951
 20
10.03543307086614
 10
9.588582677165353
 20
10.06692913385826
 10
9.579724409448818
 20
10.10531496062992
  0
LWPOLYLINE
  5
229A
330
1E
100
AcDbEntity
  8
0
100
AcDbPolyline
 90
       15
 70
     0
 43
0.0
 10
11.07972440944881
 20
10.10531496062992
 10
11.08858267716535
 20
10.14468503937007
 10
11.11318897637795
 20
10.1761811023622
 10
11.14960629921259
 20
10.19389763779527
 10
11.18996062992126
 20
10.19389763779527
 10
11.2253937007874
 20
10.1761811023622
 10
11.2509842519685
 20
10.14468503937007
 10
11.25984251968503
 20
10.10531496062992
 10
11.2509842519685
 20
10.06692913385826
 10
11.2253937007874
 20
10.03543307086614
 10
11.18996062992126
 20
10.01771653543306
 10
11.14960629921259
 20
10.01771653543306
 10
11.11318897637795
 20
10.03543307086614
 10
11.08858267716535
 20
10.06692913385826
 10
11.07972440944881
 20
10.10531496062992
  0
LWPOLYLINE
  5
22AB
330
1E
100
AcDbEntity
  8
0
100
AcDbPolyline
 90
       15
 70
     0
 43
0.0
 10
9.579724409448818
 20
7.825787401574802
 10
9.588582677165353
 20
7.86515748031496
 10
9.613188976377951
 20
7.895669291338582
 10
9.649606299212598
 20
7.913385826771653
 10
9.689960629921259
 20
7.913385826771653
 10
9.725393700787401
 20
7.895669291338582
 10
9.750984251968503
 20
7.86515748031496
 10
9.759842519685038
 20
7.825787401574802
 10
9.750984251968503
 20
7.786417322834645
 10
9.725393700787401
 20
7.754921259842519
 10
9.689960629921259
 20
7.738188976377952
 10
9.649606299212598
 20
7.738188976377952
 10
9.613188976377951
 20
7.754921259842519
 10
9.588582677165353
 20
7.786417322834645
 10
9.579724409448818
 20
7.825787401574802
  0
LWPOLYLINE
  5
22BC
330
1E
100
AcDbEntity
  8
0
100
AcDbPolyline
 90
       15
 70
     0
 43
0.0
 10
11.07972440944881
 20
7.825787401574802
 10
11.08858267716535
 20
7.86515748031496
 10
11.11318897637795
 20
7.895669291338582
 10
11.14960629921259
 20
7.913385826771653
 10
11.18996062992126
 20
7.913385826771653
 10
11.2253937007874
 20
7.895669291338582
 10
11.2509842519685
 20
7.86515748031496
 10
11.25984251968503
 20
7.825787401574802
 10
11.2509842519685
 20
7.786417322834645
 10
11.2253937007874
 20
7.754921259842519
 10
11.18996062992126
 20
7.738188976377952
 10
11.14960629921259
 20
7.738188976377952
 10
11.11318897637795
 20
7.754921259842519
 10
11.08858267716535
 20
7.786417322834645
 10
11.07972440944881
 20
7.825787401574802
  0
LWPOLYLINE
  5
22CD
330
1E
100
AcDbEntity
  8
0
100
AcDbPolyline
 90
        4
 70
     0
 43
0.0
 10
11.15452755905511
 20
8.186023622047244
 10
11.14468503937007
 20
8.137795275590551
 10
11.11614173228346
 20
8.097440944881888
 10
11.07381889763779
 20
8.071850393700787
  0
LWPOLYLINE
  5
22D3
330
1E
100
AcDbEntity
  8
0
100
AcDbPolyline
 90
        7
 70
     0
 43
0.0
 10
9.434055118110235
 20
7.820866141732283
 10
9.442913385826772
 20
7.759842519685038
 10
9.465551181102362
 20
7.702755905511811
 10
9.502952755905511
 20
7.654527559055117
 10
9.552165354330709
 20
7.617125984251968
 10
9.608267716535433
 20
7.593503937007874
 10
9.669291338582677
 20
7.585629921259842
  0
LINE
  5
22DC
330
1E
100
AcDbEntity
  8
0
100
AcDbLine
 10
3.426181102362204
 20
14.89370078740157
 30
0.0
 11
2.569881889763779
 21
13.82283464566929
 31
0.0
  0
LINE
  5
22DD
330
1E
100
AcDbEntity
  8
0
100
AcDbLine
 10
5.263779527559054
 20
14.08267716535433
 30
0.0
 11
5.26279527559055
 21
14.11811023622047
 31
0.0
  0
LINE
  5
22DE
330
1E
100
AcDbEntity
  8
0
100
AcDbLine
 10
5.077755905511811
 20
14.72244094488188
 30
0.0
 11
3.687007874015748
 21
14.97145669291338
 31
0.0
  0
LINE
  5
22DF
330
1E
100
AcDbEntity
  8
0
100
AcDbLine
 10
2.545275590551181
 20
13.28346456692913
 30
0.0
 11
2.546259842519685
 21
13.24901574803149
 31
0.0
  0
LINE
  5
22E0
330
1E
100
AcDbEntity
  8
0
100
AcDbLine
 10
2.533464566929133
 20
13.71751968503937
 30
0.0
 11
2.545275590551181
 21
13.28346456692913
 31
0.0
  0
LINE
  5
22E1
330
1E
100
AcDbEntity
  8
0
100
AcDbLine
 10
5.26279527559055
 20
14.11811023622047
 30
0.0
 11
5.25
 21
14.55216535433071
 31
0.0
  0
LWPOLYLINE
  5
22E2
330
1E
100
AcDbEntity
  8
0
100
AcDbPolyline
 90
       25
 70
     0
 43
0.0
 10
5.25
 20
14.55216535433071
 10
5.25
 20
14.56299212598425
 10
5.248031496062991
 20
14.57381889763779
 10
5.246062992125984
 20
14.58464566929134
 10
5.243110236220472
 20
14.59547244094488
 10
5.239173228346456
 20
14.60629921259842
 10
5.23523622047244
 20
14.61614173228346
 10
5.229330708661417
 20
14.6259842519685
 10
5.224409448818897
 20
14.63484251968504
 10
5.21751968503937
 20
14.64370078740157
 10
5.210629921259842
 20
14.65255905511811
 10
5.203740157480314
 20
14.66043307086614
 10
5.195866141732283
 20
14.66830708661417
 10
5.187007874015748
 20
14.6751968503937
 10
5.178149606299212
 20
14.68208661417322
 10
5.168307086614173
 20
14.68799212598425
 10
5.158464566929133
 20
14.69389763779527
 10
5.14763779527559
 20
14.69980314960629
 10
5.136811023622047
 20
14.70472440944881
 10
5.124015748031496
 20
14.70964566929134
 10
5.112204724409449
 20
14.71456692913385
 10
5.099409448818897
 20
14.71751968503937
 10
5.085629921259842
 20
14.72047244094488
 10
5.081692913385826
 20
14.72145669291338
 10
5.077755905511811
 20
14.72244094488188
  0
LWPOLYLINE
  5
22FD
330
1E
100
AcDbEntity
  8
0
100
AcDbPolyline
 90
       23
 70
     0
 43
0.0
 10
3.687007874015748
 20
14.97145669291338
 10
3.679133858267716
 20
14.97342519685039
 10
3.671259842519685
 20
14.97440944881889
 10
3.65748031496063
 20
14.9753937007874
 10
3.643700787401574
 20
14.9763779527559
 10
3.629921259842519
 20
14.9763779527559
 10
3.61515748031496
 20
14.9763779527559
 10
3.601377952755905
 20
14.9753937007874
 10
3.58759842519685
 20
14.97440944881889
 10
3.573818897637795
 20
14.97244094488189
 10
3.56003937007874
 20
14.96948818897637
 10
3.546259842519685
 20
14.96653543307086
 10
3.53248031496063
 20
14.96259842519685
 10
3.518700787401574
 20
14.95767716535433
 10
3.505905511811023
 20
14.95275590551181
 10
3.494094488188976
 20
14.94685039370078
 10
3.482283464566929
 20
14.94094488188976
 10
3.471456692913385
 20
14.93405511811023
 10
3.461614173228346
 20
14.9271653543307
 10
3.451771653543306
 20
14.92027559055118
 10
3.442913385826771
 20
14.91240157480315
 10
3.434055118110236
 20
14.9025590551181
 10
3.426181102362204
 20
14.89370078740157
  0
LWPOLYLINE
  5
2316
330
1E
100
AcDbEntity
  8
0
100
AcDbPolyline
 90
       12
 70
     0
 43
0.0
 10
2.569881889763779
 20
13.82283464566929
 10
2.562992125984251
 20
13.81299212598425
 10
2.556102362204724
 20
13.80314960629921
 10
2.551181102362204
 20
13.79330708661417
 10
2.546259842519685
 20
13.78346456692913
 10
2.542322834645669
 20
13.77362204724409
 10
2.539370078740157
 20
13.76279527559055
 10
2.536417322834645
 20
13.75295275590551
 10
2.534448818897637
 20
13.74212598425196
 10
2.533464566929133
 20
13.73031496062992
 10
2.533464566929133
 20
13.71850393700787
 10
2.533464566929133
 20
13.71751968503937
  0
LINE
  5
2324
330
1E
100
AcDbEntity
  8
0
100
AcDbLine
 10
3.51279527559055
 20
13.31496062992125
 30
0.0
 11
3.609251968503937
 21
13.29724409448818
 31
0.0
  0
LINE
  5
2325
330
1E
100
AcDbEntity
  8
0
100
AcDbLine
 10
3.609251968503937
 20
13.29724409448818
 30
0.0
 11
3.706692913385826
 21
13.66732283464566
 31
0.0
  0
LINE
  5
2326
330
1E
100
AcDbEntity
  8
0
100
AcDbLine
 10
3.706692913385826
 20
13.66732283464566
 30
0.0
 11
3.609251968503937
 21
13.68405511811023
 31
0.0
  0
LINE
  5
2327
330
1E
100
AcDbEntity
  8
0
100
AcDbLine
 10
3.609251968503937
 20
13.68405511811023
 30
0.0
 11
3.51279527559055
 21
13.31496062992125
 31
0.0
  0
LINE
  5
2328
330
1E
100
AcDbEntity
  8
0
100
AcDbLine
 10
3.338582677165354
 20
13.34645669291338
 30
0.0
 11
3.43503937007874
 21
13.32874015748031
 31
0.0
  0
LINE
  5
2329
330
1E
100
AcDbEntity
  8
0
100
AcDbLine
 10
3.43503937007874
 20
13.32874015748031
 30
0.0
 11
3.53248031496063
 21
13.69783464566929
 31
0.0
  0
LINE
  5
232A
330
1E
100
AcDbEntity
  8
0
100
AcDbLine
 10
3.53248031496063
 20
13.69783464566929
 30
0.0
 11
3.43503937007874
 21
13.71555118110236
 31
0.0
  0
LINE
  5
232B
330
1E
100
AcDbEntity
  8
0
100
AcDbLine
 10
3.43503937007874
 20
13.71555118110236
 30
0.0
 11
3.338582677165354
 21
13.34645669291338
 31
0.0
  0
LINE
  5
232C
330
1E
100
AcDbEntity
  8
0
100
AcDbLine
 10
2.834645669291338
 20
13.43602362204724
 30
0.0
 11
3.08759842519685
 21
13.39074803149606
 31
0.0
  0
LINE
  5
232D
330
1E
100
AcDbEntity
  8
0
100
AcDbLine
 10
3.08759842519685
 20
13.39074803149606
 30
0.0
 11
3.18503937007874
 21
13.76082677165354
 31
0.0
  0
LINE
  5
232E
330
1E
100
AcDbEntity
  8
0
100
AcDbLine
 10
3.18503937007874
 20
13.76082677165354
 30
0.0
 11
3.075787401574803
 21
13.78051181102362
 31
0.0
  0
LINE
  5
232F
330
1E
100
AcDbEntity
  8
0
100
AcDbLine
 10
3.075787401574803
 20
13.78051181102362
 30
0.0
 11
3.069881889763779
 21
13.75787401574803
 31
0.0
  0
LWPOLYLINE
  5
2330
330
1E
100
AcDbEntity
  8
0
100
AcDbPolyline
 90
        6
 70
     0
 43
0.0
 10
3.069881889763779
 20
13.75787401574803
 10
3.041338582677165
 20
13.67421259842519
 10
3.001968503937007
 20
13.59744094488188
 10
2.952755905511811
 20
13.53051181102362
 10
2.896653543307086
 20
13.4753937007874
 10
2.834645669291338
 20
13.43602362204724
  0
LINE
  5
2338
330
1E
100
AcDbEntity
  8
0
100
AcDbLine
 10
3.358267716535432
 20
13.72933070866141
 30
0.0
 11
3.261811023622047
 21
13.74704724409449
 31
0.0
  0
LINE
  5
2339
330
1E
100
AcDbEntity
  8
0
100
AcDbLine
 10
3.261811023622047
 20
13.74704724409449
 30
0.0
 11
3.164370078740157
 21
13.376968503937
 31
0.0
  0
LINE
  5
233A
330
1E
100
AcDbEntity
  8
0
100
AcDbLine
 10
3.164370078740157
 20
13.376968503937
 30
0.0
 11
3.261811023622047
 21
13.36023622047244
 31
0.0
  0
LINE
  5
233B
330
1E
100
AcDbEntity
  8
0
100
AcDbLine
 10
3.261811023622047
 20
13.36023622047244
 30
0.0
 11
3.358267716535432
 21
13.72933070866141
 31
0.0
  0
LWPOLYLINE
  5
233C
330
1E
100
AcDbEntity
  8
0
100
AcDbPolyline
 90
        3
 70
     0
 43
0.0
 10
5.26279527559055
 20
14.11811023622047
 10
5.258858267716535
 20
14.09448818897637
 10
5.24507874015748
 20
14.07185039370078
  0
LINE
  5
2341
330
1E
100
AcDbEntity
  8
0
100
AcDbLine
 10
4.388779527559054
 20
13.001968503937
 30
0.0
 11
5.24507874015748
 21
14.07185039370078
 31
0.0
  0
LWPOLYLINE
  5
2342
330
1E
100
AcDbEntity
  8
0
100
AcDbPolyline
 90
        7
 70
     0
 43
0.0
 10
4.388779527559054
 20
13.001968503937
 10
4.359251968503937
 20
12.97440944881889
 10
4.315944881889763
 20
12.9517716535433
 10
4.26279527559055
 20
12.93503937007874
 10
4.203740157480314
 20
12.9261811023622
 10
4.14271653543307
 20
12.92421259842519
 10
4.083661417322834
 20
12.93110236220472
  0
LINE
  5
234B
330
1E
100
AcDbEntity
  8
0
100
AcDbLine
 10
2.692913385826771
 20
13.18011811023622
 30
0.0
 11
4.083661417322834
 21
12.93110236220472
 31
0.0
  0
LWPOLYLINE
  5
234C
330
1E
100
AcDbEntity
  8
0
100
AcDbPolyline
 90
        5
 70
     0
 43
0.0
 10
2.692913385826771
 20
13.18011811023622
 10
2.632874015748031
 20
13.19586614173228
 10
2.586614173228346
 20
13.22047244094488
 10
2.556102362204724
 20
13.25
 10
2.545275590551181
 20
13.28346456692913
  0
LINE
  5
2353
330
1E
100
AcDbEntity
  8
0
100
AcDbLine
 10
3.524606299212598
 20
14.9251968503937
 30
0.0
 11
2.668307086614173
 21
13.85433070866141
 31
0.0
  0
LWPOLYLINE
  5
2354
330
1E
100
AcDbEntity
  8
0
100
AcDbPolyline
 90
        5
 70
     0
 43
0.0
 10
2.668307086614173
 20
13.85433070866141
 10
2.660433070866141
 20
13.83464566929133
 10
2.669291338582677
 20
13.81496062992126
 10
2.691929133858267
 20
13.79822834645669
 10
2.726377952755905
 20
13.78740157480315
  0
LINE
  5
235B
330
1E
100
AcDbEntity
  8
0
100
AcDbLine
 10
2.726377952755905
 20
13.78740157480315
 30
0.0
 11
2.74015748031496
 21
13.78543307086614
 31
0.0
  0
LWPOLYLINE
  5
235C
330
1E
100
AcDbEntity
  8
0
100
AcDbPolyline
 90
        3
 70
     0
 43
0.0
 10
2.74015748031496
 20
13.78543307086614
 10
2.8001968503937
 20
13.78346456692913
 10
2.853346456692913
 20
13.79921259842519
  0
LWPOLYLINE
  5
2361
330
1E
100
AcDbEntity
  8
0
100
AcDbPolyline
 90
        4
 70
     0
 43
0.0
 10
2.853346456692913
 20
13.79921259842519
 10
2.901574803149606
 20
13.82185039370078
 10
2.955708661417322
 20
13.84251968503937
 10
3.011811023622047
 20
13.85531496062992
  0
LWPOLYLINE
  5
2367
330
1E
100
AcDbEntity
  8
0
100
AcDbPolyline
 90
        3
 70
     0
 43
0.0
 10
3.011811023622047
 20
13.85531496062992
 10
3.062007874015748
 20
13.86023622047244
 10
3.109251968503937
 20
13.85629921259842
  0
LINE
  5
236C
330
1E
100
AcDbEntity
  8
0
100
AcDbLine
 10
3.109251968503937
 20
13.85629921259842
 30
0.0
 11
3.9251968503937
 21
13.70964566929133
 31
0.0
  0
LWPOLYLINE
  5
236D
330
1E
100
AcDbEntity
  8
0
100
AcDbPolyline
 90
        3
 70
     0
 43
0.0
 10
3.9251968503937
 20
13.70964566929133
 10
3.966535433070866
 20
13.69783464566929
 10
3.998031496062992
 20
13.67913385826771
  0
LWPOLYLINE
  5
2372
330
1E
100
AcDbEntity
  8
0
100
AcDbPolyline
 90
        4
 70
     0
 43
0.0
 10
3.998031496062992
 20
13.67913385826771
 10
4.024606299212598
 20
13.64468503937007
 10
4.033464566929134
 20
13.61614173228346
 10
4.037401574803149
 20
13.58661417322834
  0
LWPOLYLINE
  5
2378
330
1E
100
AcDbEntity
  8
0
100
AcDbPolyline
 90
        3
 70
     0
 43
0.0
 10
4.037401574803149
 20
13.58661417322834
 10
4.056102362204724
 20
13.55905511811023
 10
4.103346456692912
 20
13.54133858267716
  0
LINE
  5
237D
330
1E
100
AcDbEntity
  8
0
100
AcDbLine
 10
4.103346456692912
 20
13.54133858267716
 30
0.0
 11
4.117125984251968
 21
13.53838582677165
 31
0.0
  0
LWPOLYLINE
  5
237E
330
1E
100
AcDbEntity
  8
0
100
AcDbPolyline
 90
        5
 70
     0
 43
0.0
 10
4.117125984251968
 20
13.53838582677165
 10
4.157480314960629
 20
13.53543307086614
 10
4.196850393700787
 20
13.54035433070866
 10
4.231299212598425
 20
13.5521653543307
 10
4.253937007874015
 20
13.56988188976377
  0
LINE
  5
2385
330
1E
100
AcDbEntity
  8
0
100
AcDbLine
 10
4.253937007874015
 20
13.56988188976377
 30
0.0
 11
5.11023622047244
 21
14.64074803149606
 31
0.0
  0
LWPOLYLINE
  5
2386
330
1E
100
AcDbEntity
  8
0
100
AcDbPolyline
 90
        5
 70
     0
 43
0.0
 10
5.11023622047244
 20
14.64074803149606
 10
5.117125984251968
 20
14.66043307086614
 10
5.109251968503937
 20
14.68011811023622
 10
5.085629921259842
 20
14.69685039370078
 10
5.052165354330708
 20
14.70767716535433
  0
LINE
  5
238D
330
1E
100
AcDbEntity
  8
0
100
AcDbLine
 10
5.052165354330708
 20
14.70767716535433
 30
0.0
 11
3.661417322834645
 21
14.95669291338582
 31
0.0
  0
LWPOLYLINE
  5
238E
330
1E
100
AcDbEntity
  8
0
100
AcDbPolyline
 90
        5
 70
     0
 43
0.0
 10
3.661417322834645
 20
14.95669291338582
 10
3.621062992125984
 20
14.95964566929133
 10
3.580708661417322
 20
14.95472440944881
 10
3.547244094488188
 20
14.94291338582677
 10
3.524606299212598
 20
14.9251968503937
  0
LWPOLYLINE
  5
2395
330
1E
100
AcDbEntity
  8
0
100
AcDbPolyline
 90
       13
 70
     0
 43
0.0
 10
3.181102362204724
 20
14.05807086614173
 10
3.177165354330708
 20
14.04133858267716
 10
3.189960629921259
 20
14.0265748031496
 10
3.217519685039369
 20
14.01673228346456
 10
3.25
 20
14.01574803149606
 10
3.281496062992125
 20
14.02263779527559
 10
3.301181102362204
 20
14.03641732283464
 10
3.306102362204724
 20
14.05314960629921
 10
3.292322834645669
 20
14.06889763779527
 10
3.265748031496062
 20
14.07775590551181
 10
3.232283464566929
 20
14.07972440944881
 10
3.201771653543306
 20
14.07185039370078
 10
3.181102362204724
 20
14.05807086614173
  0
LWPOLYLINE
  5
23A4
330
1E
100
AcDbEntity
  8
0
100
AcDbPolyline
 90
       13
 70
     0
 43
0.0
 10
4.130905511811023
 20
14.0265748031496
 10
4.126968503937007
 20
14.00984251968504
 10
4.139763779527559
 20
13.99507874015748
 10
4.167322834645669
 20
13.98523622047244
 10
4.199803149606299
 20
13.98425196850393
 10
4.231299212598425
 20
13.99114173228346
 10
4.250984251968503
 20
14.00492125984252
 10
4.255905511811023
 20
14.02165354330708
 10
4.242125984251968
 20
14.03641732283464
 10
4.215551181102362
 20
14.04625984251968
 10
4.182086614173228
 20
14.04724409448818
 10
4.151574803149606
 20
14.04035433070866
 10
4.130905511811023
 20
14.0265748031496
  0
LWPOLYLINE
  5
23B3
330
1E
100
AcDbEntity
  8
0
100
AcDbPolyline
 90
       13
 70
     0
 43
0.0
 10
3.494094488188976
 20
13.83956692913385
 10
3.49015748031496
 20
13.82283464566929
 10
3.502952755905511
 20
13.80807086614173
 10
3.530511811023622
 20
13.79921259842519
 10
3.562992125984251
 20
13.79724409448819
 10
3.594488188976377
 20
13.80413385826771
 10
3.614173228346456
 20
13.81791338582677
 10
3.619094488188976
 20
13.83464566929133
 10
3.605314960629921
 20
13.8503937007874
 10
3.578740157480314
 20
13.85925196850393
 10
3.545275590551181
 20
13.86122047244094
 10
3.514763779527558
 20
13.85334645669291
 10
3.494094488188976
 20
13.83956692913385
  0
LWPOLYLINE
  5
23C2
330
1E
100
AcDbEntity
  8
0
100
AcDbPolyline
 90
       13
 70
     0
 43
0.0
 10
4.163385826771653
 20
14.67716535433071
 10
4.159448818897637
 20
14.66043307086614
 10
4.172244094488188
 20
14.64468503937007
 10
4.199803149606299
 20
14.63582677165354
 10
4.232283464566928
 20
14.63385826771653
 10
4.263779527559054
 20
14.64173228346456
 10
4.283464566929133
 20
14.65551181102362
 10
4.288385826771653
 20
14.67224409448818
 10
4.274606299212598
 20
14.68700787401574
 10
4.248031496062991
 20
14.69685039370078
 10
4.214566929133858
 20
14.69783464566929
 10
4.184055118110236
 20
14.69094488188976
 10
4.163385826771653
 20
14.67716535433071
  0
LINE
  5
23D1
330
1E
100
AcDbEntity
  8
0
100
AcDbLine
 10
5.24507874015748
 20
14.07185039370078
 30
0.0
 11
5.233267716535433
 21
14.50590551181102
 31
0.0
  0
LINE
  5
23D2
330
1E
100
AcDbEntity
  8
0
100
AcDbLine
 10
5.233267716535433
 20
14.50590551181102
 30
0.0
 11
4.376968503937007
 21
13.43602362204724
 31
0.0
  0
LINE
  5
23D3
330
1E
100
AcDbEntity
  8
0
100
AcDbLine
 10
4.376968503937007
 20
13.43602362204724
 30
0.0
 11
4.388779527559054
 21
13.001968503937
 31
0.0
  0
LINE
  5
23D4
330
1E
100
AcDbEntity
  8
0
100
AcDbLine
 10
2.698818897637795
 20
13.45767716535433
 30
0.0
 11
2.694881889763779
 21
13.61220472440944
 31
0.0
  0
LINE
  5
23D5
330
1E
100
AcDbEntity
  8
0
100
AcDbLine
 10
2.694881889763779
 20
13.61220472440944
 30
0.0
 11
2.681102362204724
 21
13.61417322834645
 31
0.0
  0
LINE
  5
23D6
330
1E
100
AcDbEntity
  8
0
100
AcDbLine
 10
2.681102362204724
 20
13.61417322834645
 30
0.0
 11
2.692913385826771
 21
13.18011811023622
 31
0.0
  0
LINE
  5
23D7
330
1E
100
AcDbEntity
  8
0
100
AcDbLine
 10
4.083661417322834
 20
12.93110236220472
 30
0.0
 11
4.071850393700787
 21
13.36515748031496
 31
0.0
  0
LINE
  5
23D8
330
1E
100
AcDbEntity
  8
0
100
AcDbLine
 10
4.071850393700787
 20
13.36515748031496
 30
0.0
 11
4.057086614173228
 21
13.36712598425196
 31
0.0
  0
LINE
  5
23D9
330
1E
100
AcDbEntity
  8
0
100
AcDbLine
 10
4.057086614173228
 20
13.36712598425196
 30
0.0
 11
4.062007874015748
 21
13.21358267716535
 31
0.0
  0
LWPOLYLINE
  5
23DA
330
1E
100
AcDbEntity
  8
0
100
AcDbPolyline
 90
        5
 70
     0
 43
0.0
 10
4.062007874015748
 20
13.21358267716535
 10
4.061023622047244
 20
13.21259842519685
 10
4.051181102362204
 20
13.20767716535433
 10
4.002952755905512
 20
13.19192913385826
 10
3.933070866141732
 20
13.19291338582677
  0
LINE
  5
23E1
330
1E
100
AcDbEntity
  8
0
100
AcDbLine
 10
3.933070866141732
 20
13.19291338582677
 30
0.0
 11
2.829724409448818
 21
13.39173228346456
 31
0.0
  0
LWPOLYLINE
  5
23E2
330
1E
100
AcDbEntity
  8
0
100
AcDbPolyline
 90
        4
 70
     0
 43
0.0
 10
2.829724409448818
 20
13.39173228346456
 10
2.759842519685039
 20
13.41437007874015
 10
2.709645669291338
 20
13.44783464566929
 10
2.698818897637795
 20
13.45767716535433
  0
LWPOLYLINE
  5
23E8
330
1E
100
AcDbEntity
  8
0
100
AcDbPolyline
 90
        3
 70
     0
 43
0.0
 10
5.25
 20
14.55216535433071
 10
5.246062992125984
 20
14.52854330708661
 10
5.233267716535433
 20
14.50590551181102
  0
LWPOLYLINE
  5
23ED
330
1E
100
AcDbEntity
  8
0
100
AcDbPolyline
 90
        5
 70
     0
 43
0.0
 10
2.681102362204724
 20
13.61417322834645
 10
2.621062992125984
 20
13.62992125984252
 10
2.574803149606299
 20
13.65452755905511
 10
2.544291338582677
 20
13.68405511811023
 10
2.533464566929133
 20
13.71751968503937
  0
LWPOLYLINE
  5
23F4
330
1E
100
AcDbEntity
  8
0
100
AcDbPolyline
 90
        7
 70
     0
 43
0.0
 10
4.376968503937007
 20
13.43602362204724
 10
4.347440944881889
 20
13.40846456692913
 10
4.304133858267716
 20
13.38582677165354
 10
4.250984251968503
 20
13.36909448818897
 10
4.191929133858267
 20
13.36023622047244
 10
4.130905511811023
 20
13.35826771653543
 10
4.071850393700787
 20
13.36515748031496
  0
LINE
  5
23FD
330
1E
100
AcDbEntity
  8
0
100
AcDbLine
 10
3.891732283464566
 20
13.63385826771653
 30
0.0
 11
3.783464566929133
 21
13.65354330708661
 31
0.0
  0
LINE
  5
23FE
330
1E
100
AcDbEntity
  8
0
100
AcDbLine
 10
3.783464566929133
 20
13.65354330708661
 30
0.0
 11
3.686023622047243
 21
13.28346456692913
 31
0.0
  0
LINE
  5
23FF
330
1E
100
AcDbEntity
  8
0
100
AcDbLine
 10
3.686023622047243
 20
13.28346456692913
 30
0.0
 11
3.938976377952755
 21
13.23818897637795
 31
0.0
  0
LWPOLYLINE
  5
2400
330
1E
100
AcDbEntity
  8
0
100
AcDbPolyline
 90
        6
 70
     0
 43
0.0
 10
3.938976377952755
 20
13.23818897637795
 10
3.903543307086613
 20
13.29527559055118
 10
3.878937007874015
 20
13.36417322834645
 10
3.868110236220472
 20
13.44192913385826
 10
3.87007874015748
 20
13.5255905511811
 10
3.885826771653542
 20
13.61122047244094
  0
LINE
  5
2408
330
1E
100
AcDbEntity
  8
0
100
AcDbLine
 10
3.885826771653542
 20
13.61122047244094
 30
0.0
 11
3.891732283464566
 21
13.63385826771653
 31
0.0
  0
LWPOLYLINE
  5
2409
330
1E
100
AcDbEntity
  8
0
100
AcDbPolyline
 90
        5
 70
     0
 43
0.0
 10
4.057086614173228
 20
13.36712598425196
 10
3.999015748031495
 20
13.38287401574803
 10
3.952755905511811
 20
13.40649606299212
 10
3.922244094488188
 20
13.43602362204724
 10
3.910433070866141
 20
13.46948818897637
  0
LWPOLYLINE
  5
2410
330
1E
100
AcDbEntity
  8
0
100
AcDbPolyline
 90
        7
 70
     0
 43
0.0
 10
3.910433070866141
 20
13.46948818897637
 10
3.917322834645669
 20
13.40354330708661
 10
3.932086614173228
 20
13.34448818897637
 10
3.955708661417322
 20
13.29429133858267
 10
3.98523622047244
 20
13.25492125984252
 10
4.021653543307086
 20
13.22736220472441
 10
4.062007874015748
 20
13.21358267716535
  0
LWPOLYLINE
  5
2419
330
1E
100
AcDbEntity
  8
0
100
AcDbPolyline
 90
        7
 70
     0
 43
0.0
 10
2.698818897637795
 20
13.45767716535433
 10
2.742125984251968
 20
13.45669291338582
 10
2.787401574803149
 20
13.46948818897637
 10
2.831692913385826
 20
13.49606299212598
 10
2.874015748031495
 20
13.53444881889763
 10
2.913385826771653
 20
13.58366141732283
 10
2.947834645669291
 20
13.64173228346456
  0
LWPOLYLINE
  5
2422
330
1E
100
AcDbEntity
  8
0
100
AcDbPolyline
 90
        5
 70
     0
 43
0.0
 10
2.947834645669291
 20
13.64173228346456
 10
2.89271653543307
 20
13.62106299212598
 10
2.828740157480314
 20
13.60826771653543
 10
2.760826771653543
 20
13.60531496062992
 10
2.694881889763779
 20
13.61220472440944
  0
LINE
  5
2429
330
1E
100
AcDbEntity
  8
0
100
AcDbLine
 10
3.692913385826771
 20
13.54035433070866
 30
0.0
 11
3.696850393700787
 21
13.39074803149606
 31
0.0
  0
LINE
  5
242A
330
1E
100
AcDbEntity
  8
0
100
AcDbLine
 10
3.696850393700787
 20
13.39074803149606
 30
0.0
 11
3.713582677165354
 21
13.38779527559055
 31
0.0
  0
LINE
  5
242B
330
1E
100
AcDbEntity
  8
0
100
AcDbLine
 10
3.171259842519685
 20
13.63385826771653
 30
0.0
 11
3.1751968503937
 21
13.48425196850393
 31
0.0
  0
LINE
  5
242C
330
1E
100
AcDbEntity
  8
0
100
AcDbLine
 10
3.1751968503937
 20
13.48425196850393
 30
0.0
 11
3.191929133858267
 21
13.48129921259842
 31
0.0
  0
LINE
  5
242D
330
1E
100
AcDbEntity
  8
0
100
AcDbLine
 10
3.344488188976377
 20
13.6023622047244
 30
0.0
 11
3.349409448818897
 21
13.45275590551181
 31
0.0
  0
LINE
  5
242E
330
1E
100
AcDbEntity
  8
0
100
AcDbLine
 10
3.349409448818897
 20
13.45275590551181
 30
0.0
 11
3.366141732283464
 21
13.44980314960629
 31
0.0
  0
LINE
  5
242F
330
1E
100
AcDbEntity
  8
0
100
AcDbLine
 10
3.518700787401574
 20
13.57185039370078
 30
0.0
 11
3.52263779527559
 21
13.42224409448818
 31
0.0
  0
LINE
  5
2430
330
1E
100
AcDbEntity
  8
0
100
AcDbLine
 10
3.52263779527559
 20
13.42224409448818
 30
0.0
 11
3.539370078740157
 21
13.41929133858267
 31
0.0
  0
LINE
  5
2431
330
1E
100
AcDbEntity
  8
0
100
AcDbLine
 10
3.40748031496063
 20
13.60925196850393
 30
0.0
 11
3.346456692913385
 21
13.63090551181102
 31
0.0
  0
LINE
  5
2432
330
1E
100
AcDbEntity
  8
0
100
AcDbLine
 10
3.241141732283464
 20
13.66830708661417
 30
0.0
 11
3.18011811023622
 21
13.68996062992126
 31
0.0
  0
LINE
  5
2433
330
1E
100
AcDbEntity
  8
0
100
AcDbLine
 10
3.770669291338582
 20
13.60433070866141
 30
0.0
 11
3.709645669291338
 21
13.61515748031496
 31
0.0
  0
LWPOLYLINE
  5
2434
330
1E
100
AcDbEntity
  8
0
100
AcDbPolyline
 90
        3
 70
     0
 43
0.0
 10
3.709645669291338
 20
13.61515748031496
 10
3.696850393700787
 20
13.58070866141732
 10
3.692913385826771
 20
13.54035433070866
  0
LINE
  5
2439
330
1E
100
AcDbEntity
  8
0
100
AcDbLine
 10
3.596456692913385
 20
13.63582677165354
 30
0.0
 11
3.536417322834645
 21
13.64665354330708
 31
0.0
  0
LWPOLYLINE
  5
243A
330
1E
100
AcDbEntity
  8
0
100
AcDbPolyline
 90
        3
 70
     0
 43
0.0
 10
3.536417322834645
 20
13.64665354330708
 10
3.52263779527559
 20
13.61220472440944
 10
3.518700787401574
 20
13.57185039370078
  0
LINE
  5
243F
330
1E
100
AcDbEntity
  8
0
100
AcDbLine
 10
3.422244094488188
 20
13.66633858267716
 30
0.0
 11
3.362204724409448
 21
13.6771653543307
 31
0.0
  0
LWPOLYLINE
  5
2440
330
1E
100
AcDbEntity
  8
0
100
AcDbPolyline
 90
        3
 70
     0
 43
0.0
 10
3.362204724409448
 20
13.6771653543307
 10
3.349409448818897
 20
13.64271653543307
 10
3.344488188976377
 20
13.6023622047244
  0
LINE
  5
2445
330
1E
100
AcDbEntity
  8
0
100
AcDbLine
 10
3.249015748031495
 20
13.69783464566929
 30
0.0
 11
3.187992125984251
 21
13.70866141732283
 31
0.0
  0
LWPOLYLINE
  5
2446
330
1E
100
AcDbEntity
  8
0
100
AcDbPolyline
 90
        3
 70
     0
 43
0.0
 10
3.187992125984251
 20
13.70866141732283
 10
3.1751968503937
 20
13.67421259842519
 10
3.171259842519685
 20
13.63385826771653
  0
LWPOLYLINE
  5
244B
330
1E
100
AcDbEntity
  8
0
100
AcDbPolyline
 90
        3
 70
     0
 43
0.0
 10
3.910433070866141
 20
13.46948818897637
 10
3.912401574803149
 20
13.56496062992126
 10
3.910433070866141
 20
13.60826771653543
  0
LWPOLYLINE
  5
2450
330
1E
100
AcDbEntity
  8
0
100
AcDbPolyline
 90
        3
 70
     0
 43
0.0
 10
3.885826771653542
 20
13.61122047244094
 10
3.899606299212598
 20
13.60925196850393
 10
3.910433070866141
 20
13.60826771653543
  0
LWPOLYLINE
  5
2455
330
1E
100
AcDbEntity
  8
0
100
AcDbPolyline
 90
        4
 70
     0
 43
0.0
 10
3.938976377952755
 20
13.23818897637795
 10
3.996062992125984
 20
13.21751968503937
 10
4.061023622047244
 20
13.21358267716535
 10
4.062007874015748
 20
13.21358267716535
  0
LWPOLYLINE
  5
245B
330
1E
100
AcDbEntity
  8
0
100
AcDbPolyline
 90
        3
 70
     0
 43
0.0
 10
3.910433070866141
 20
13.60826771653543
 10
3.903543307086613
 20
13.6259842519685
 10
3.891732283464566
 20
13.63385826771653
  0
LWPOLYLINE
  5
2460
330
1E
100
AcDbEntity
  8
0
100
AcDbPolyline
 90
        3
 70
     0
 43
0.0
 10
3.041338582677165
 20
13.76476377952756
 10
3.056102362204724
 20
13.76082677165354
 10
3.069881889763779
 20
13.75787401574803
  0
LWPOLYLINE
  5
2465
330
1E
100
AcDbEntity
  8
0
100
AcDbPolyline
 90
        3
 70
     0
 43
0.0
 10
3.041338582677165
 20
13.76476377952756
 10
3.015748031496062
 20
13.73425196850393
 10
2.947834645669291
 20
13.64173228346456
  0
LWPOLYLINE
  5
246A
330
1E
100
AcDbEntity
  8
0
100
AcDbPolyline
 90
        4
 70
     0
 43
0.0
 10
2.698818897637795
 20
13.45767716535433
 10
2.699803149606299
 20
13.45767716535433
 10
2.769685039370078
 20
13.43700787401574
 10
2.834645669291338
 20
13.43602362204724
  0
LWPOLYLINE
  5
2470
330
1E
100
AcDbEntity
  8
0
100
AcDbPolyline
 90
        3
 70
     0
 43
0.0
 10
3.075787401574803
 20
13.78051181102362
 10
3.06003937007874
 20
13.7775590551181
 10
3.041338582677165
 20
13.76476377952756
  0
LWPOLYLINE
  5
2475
330
1E
100
AcDbEntity
  8
0
100
AcDbPolyline
 90
        3
 70
     0
 43
0.0
 10
2.834645669291338
 20
13.43602362204724
 10
2.830708661417322
 20
13.41338582677165
 10
2.829724409448818
 20
13.39173228346456
  0
LWPOLYLINE
  5
247A
330
1E
100
AcDbEntity
  8
0
100
AcDbPolyline
 90
        3
 70
     0
 43
0.0
 10
3.609251968503937
 20
13.29724409448818
 10
3.607283464566929
 20
13.28740157480315
 10
3.605314960629921
 20
13.2765748031496
  0
LWPOLYLINE
  5
247F
330
1E
100
AcDbEntity
  8
0
100
AcDbPolyline
 90
        3
 70
     0
 43
0.0
 10
3.507874015748031
 20
13.29429133858267
 10
3.509842519685039
 20
13.30413385826771
 10
3.51279527559055
 20
13.31496062992125
  0
LINE
  5
2484
330
1E
100
AcDbEntity
  8
0
100
AcDbLine
 10
3.431102362204724
 20
13.30807086614173
 30
0.0
 11
3.507874015748031
 21
13.29429133858267
 31
0.0
  0
LWPOLYLINE
  5
2485
330
1E
100
AcDbEntity
  8
0
100
AcDbPolyline
 90
        3
 70
     0
 43
0.0
 10
3.43503937007874
 20
13.32874015748031
 10
3.433070866141732
 20
13.31791338582677
 10
3.431102362204724
 20
13.30807086614173
  0
LWPOLYLINE
  5
248A
330
1E
100
AcDbEntity
  8
0
100
AcDbPolyline
 90
        3
 70
     0
 43
0.0
 10
3.334645669291338
 20
13.32480314960629
 10
3.336614173228346
 20
13.33562992125984
 10
3.338582677165354
 20
13.34645669291338
  0
LINE
  5
248F
330
1E
100
AcDbEntity
  8
0
100
AcDbLine
 10
3.257874015748031
 20
13.33858267716535
 30
0.0
 11
3.334645669291338
 21
13.32480314960629
 31
0.0
  0
LWPOLYLINE
  5
2490
330
1E
100
AcDbEntity
  8
0
100
AcDbPolyline
 90
        3
 70
     0
 43
0.0
 10
3.261811023622047
 20
13.36023622047244
 10
3.258858267716535
 20
13.34940944881889
 10
3.257874015748031
 20
13.33858267716535
  0
LWPOLYLINE
  5
2495
330
1E
100
AcDbEntity
  8
0
100
AcDbPolyline
 90
        3
 70
     0
 43
0.0
 10
3.160433070866141
 20
13.35629921259842
 10
3.162401574803149
 20
13.36712598425196
 10
3.164370078740157
 20
13.376968503937
  0
LINE
  5
249A
330
1E
100
AcDbEntity
  8
0
100
AcDbLine
 10
3.083661417322834
 20
13.37007874015748
 30
0.0
 11
3.160433070866141
 21
13.35629921259842
 31
0.0
  0
LWPOLYLINE
  5
249B
330
1E
100
AcDbEntity
  8
0
100
AcDbPolyline
 90
        3
 70
     0
 43
0.0
 10
3.08759842519685
 20
13.39074803149606
 10
3.085629921259842
 20
13.38090551181102
 10
3.083661417322834
 20
13.37007874015748
  0
LWPOLYLINE
  5
24A0
330
1E
100
AcDbEntity
  8
0
100
AcDbPolyline
 90
        3
 70
     0
 43
0.0
 10
3.938976377952755
 20
13.23818897637795
 10
3.93503937007874
 20
13.21555118110236
 10
3.933070866141732
 20
13.19291338582677
  0
LWPOLYLINE
  5
24A5
330
1E
100
AcDbEntity
  8
0
100
AcDbPolyline
 90
        3
 70
     0
 43
0.0
 10
3.682086614173228
 20
13.26279527559055
 10
3.684055118110236
 20
13.27362204724409
 10
3.686023622047243
 20
13.28346456692913
  0
LINE
  5
24AA
330
1E
100
AcDbEntity
  8
0
100
AcDbLine
 10
3.605314960629921
 20
13.2765748031496
 30
0.0
 11
3.682086614173228
 21
13.26279527559055
 31
0.0
  0
LWPOLYLINE
  5
24AB
330
1E
100
AcDbEntity
  8
0
100
AcDbPolyline
 90
        5
 70
     0
 43
0.0
 10
3.910433070866141
 20
13.46948818897637
 10
3.919291338582677
 20
13.51279527559055
 10
3.946850393700787
 20
13.5501968503937
 10
3.988188976377952
 20
13.5757874015748
 10
4.037401574803149
 20
13.58661417322834
  0
LWPOLYLINE
  5
24B2
330
1E
100
AcDbEntity
  8
0
100
AcDbPolyline
 90
        5
 70
     0
 43
0.0
 10
4.103346456692912
 20
13.54133858267716
 10
4.084645669291338
 20
13.50885826771653
 10
4.069881889763779
 20
13.46456692913385
 10
4.060039370078739
 20
13.41535433070866
 10
4.057086614173228
 20
13.36712598425196
  0
LWPOLYLINE
  5
24B9
330
1E
100
AcDbEntity
  8
0
100
AcDbPolyline
 90
        5
 70
     0
 43
0.0
 10
4.117125984251968
 20
13.53838582677165
 10
4.098425196850393
 20
13.50688976377952
 10
4.083661417322834
 20
13.46259842519685
 10
4.073818897637795
 20
13.41240157480314
 10
4.071850393700787
 20
13.36515748031496
  0
LWPOLYLINE
  5
24C0
330
1E
100
AcDbEntity
  8
0
100
AcDbPolyline
 90
        3
 70
     0
 43
0.0
 10
3.910433070866141
 20
13.60826771653543
 10
3.948818897637795
 20
13.6525590551181
 10
3.998031496062992
 20
13.67913385826771
  0
LWPOLYLINE
  5
24C5
330
1E
100
AcDbEntity
  8
0
100
AcDbPolyline
 90
        5
 70
     0
 43
0.0
 10
4.253937007874015
 20
13.56988188976377
 10
4.3001968503937
 20
13.55314960629921
 10
4.339566929133858
 20
13.52165354330708
 10
4.367125984251968
 20
13.48031496062992
 10
4.376968503937007
 20
13.43602362204724
  0
LWPOLYLINE
  5
24CC
330
1E
100
AcDbEntity
  8
0
100
AcDbPolyline
 90
        3
 70
     0
 43
0.0
 10
3.891732283464566
 20
13.63385826771653
 10
3.906496062992125
 20
13.67814960629921
 10
3.9251968503937
 20
13.70964566929133
  0
LWPOLYLINE
  5
24D1
330
1E
100
AcDbEntity
  8
0
100
AcDbPolyline
 90
        5
 70
     0
 43
0.0
 10
5.11023622047244
 20
14.64074803149606
 10
5.156496062992125
 20
14.62401574803149
 10
5.195866141732283
 20
14.59251968503937
 10
5.223425196850393
 20
14.5511811023622
 10
5.233267716535433
 20
14.50590551181102
  0
LWPOLYLINE
  5
24D8
330
1E
100
AcDbEntity
  8
0
100
AcDbPolyline
 90
        3
 70
     0
 43
0.0
 10
3.708661417322834
 20
13.67421259842519
 10
3.70767716535433
 20
13.67027559055118
 10
3.706692913385826
 20
13.66732283464566
  0
LINE
  5
24DD
330
1E
100
AcDbEntity
  8
0
100
AcDbLine
 10
3.785433070866141
 20
13.66043307086614
 30
0.0
 11
3.708661417322834
 21
13.67421259842519
 31
0.0
  0
LWPOLYLINE
  5
24DE
330
1E
100
AcDbEntity
  8
0
100
AcDbPolyline
 90
        3
 70
     0
 43
0.0
 10
3.783464566929133
 20
13.65354330708661
 10
3.784448818897637
 20
13.65649606299212
 10
3.785433070866141
 20
13.66043307086614
  0
LWPOLYLINE
  5
24E3
330
1E
100
AcDbEntity
  8
0
100
AcDbPolyline
 90
        3
 70
     0
 43
0.0
 10
3.075787401574803
 20
13.78051181102362
 10
3.091535433070866
 20
13.82381889763779
 10
3.109251968503937
 20
13.85629921259842
  0
LWPOLYLINE
  5
24E8
330
1E
100
AcDbEntity
  8
0
100
AcDbPolyline
 90
        3
 70
     0
 43
0.0
 10
3.187007874015748
 20
13.76771653543307
 10
3.186023622047243
 20
13.76476377952756
 10
3.18503937007874
 20
13.76082677165354
  0
LINE
  5
24ED
330
1E
100
AcDbEntity
  8
0
100
AcDbLine
 10
3.263779527559055
 20
13.75393700787401
 30
0.0
 11
3.187007874015748
 21
13.76771653543307
 31
0.0
  0
LWPOLYLINE
  5
24EE
330
1E
100
AcDbEntity
  8
0
100
AcDbPolyline
 90
        3
 70
     0
 43
0.0
 10
3.261811023622047
 20
13.74704724409449
 10
3.26279527559055
 20
13.75
 10
3.263779527559055
 20
13.75393700787401
  0
LWPOLYLINE
  5
24F3
330
1E
100
AcDbEntity
  8
0
100
AcDbPolyline
 90
        3
 70
     0
 43
0.0
 10
3.36023622047244
 20
13.73720472440944
 10
3.359251968503937
 20
13.73326771653543
 10
3.358267716535432
 20
13.72933070866141
  0
LINE
  5
24F8
330
1E
100
AcDbEntity
  8
0
100
AcDbLine
 10
3.437992125984251
 20
13.72342519685039
 30
0.0
 11
3.36023622047244
 21
13.73720472440944
 31
0.0
  0
LWPOLYLINE
  5
24F9
330
1E
100
AcDbEntity
  8
0
100
AcDbPolyline
 90
        3
 70
     0
 43
0.0
 10
3.43503937007874
 20
13.71555118110236
 10
3.436023622047243
 20
13.71948818897637
 10
3.437992125984251
 20
13.72342519685039
  0
LWPOLYLINE
  5
24FE
330
1E
100
AcDbEntity
  8
0
100
AcDbPolyline
 90
        3
 70
     0
 43
0.0
 10
3.534448818897637
 20
13.70570866141732
 10
3.533464566929133
 20
13.7017716535433
 10
3.53248031496063
 20
13.69783464566929
  0
LINE
  5
2503
330
1E
100
AcDbEntity
  8
0
100
AcDbLine
 10
3.611220472440944
 20
13.69192913385826
 30
0.0
 11
3.534448818897637
 21
13.70570866141732
 31
0.0
  0
LWPOLYLINE
  5
2504
330
1E
100
AcDbEntity
  8
0
100
AcDbPolyline
 90
        3
 70
     0
 43
0.0
 10
3.609251968503937
 20
13.68405511811023
 10
3.61023622047244
 20
13.68799212598425
 10
3.611220472440944
 20
13.69192913385826
  0
LWPOLYLINE
  5
2509
330
1E
100
AcDbEntity
  8
0
100
AcDbPolyline
 90
        3
 70
     0
 43
0.0
 10
5.052165354330708
 20
14.70767716535433
 10
5.06496062992126
 20
14.71948818897637
 10
5.077755905511811
 20
14.72244094488188
  0
LWPOLYLINE
  5
250E
330
1E
100
AcDbEntity
  8
0
100
AcDbPolyline
 90
        3
 70
     0
 43
0.0
 10
3.041338582677165
 20
13.76476377952756
 10
3.02755905511811
 20
13.81791338582677
 10
3.011811023622047
 20
13.85531496062992
  0
LWPOLYLINE
  5
2513
330
1E
100
AcDbEntity
  8
0
100
AcDbPolyline
 90
        3
 70
     0
 43
0.0
 10
3.661417322834645
 20
14.95669291338582
 10
3.674212598425196
 20
14.96948818897637
 10
3.687007874015748
 20
14.97145669291338
  0
LWPOLYLINE
  5
2518
330
1E
100
AcDbEntity
  8
0
100
AcDbPolyline
 90
        5
 70
     0
 43
0.0
 10
2.947834645669291
 20
13.64173228346456
 10
2.938976377952755
 20
13.68897637795275
 10
2.918307086614173
 20
13.73425196850393
 10
2.88779527559055
 20
13.77362204724409
 10
2.853346456692913
 20
13.79921259842519
  0
LWPOLYLINE
  5
251F
330
1E
100
AcDbEntity
  8
0
100
AcDbPolyline
 90
        3
 70
     0
 43
0.0
 10
3.524606299212598
 20
14.9251968503937
 10
3.468503937007874
 20
14.92224409448819
 10
3.426181102362204
 20
14.89370078740157
  0
LWPOLYLINE
  5
2524
330
1E
100
AcDbEntity
  8
0
100
AcDbPolyline
 90
        5
 70
     0
 43
0.0
 10
2.694881889763779
 20
13.61220472440944
 10
2.696850393700787
 20
13.65944881889763
 10
2.706692913385826
 20
13.70964566929133
 10
2.721456692913385
 20
13.75393700787401
 10
2.74015748031496
 20
13.78543307086614
  0
LWPOLYLINE
  5
252B
330
1E
100
AcDbEntity
  8
0
100
AcDbPolyline
 90
        3
 70
     0
 43
0.0
 10
2.668307086614173
 20
13.85433070866141
 10
2.612204724409448
 20
13.8513779527559
 10
2.569881889763779
 20
13.82283464566929
  0
LWPOLYLINE
  5
2530
330
1E
100
AcDbEntity
  8
0
100
AcDbPolyline
 90
        5
 70
     0
 43
0.0
 10
2.681102362204724
 20
13.61417322834645
 10
2.683070866141732
 20
13.66240157480315
 10
2.692913385826771
 20
13.71161417322834
 10
2.70767716535433
 20
13.75590551181102
 10
2.726377952755905
 20
13.78740157480315
  0
LINE
  5
2537
330
1E
100
AcDbEntity
  8
0
100
AcDbLine
 10
3.257874015748031
 20
13.33858267716535
 30
0.0
 11
3.349409448818897
 21
13.45275590551181
 31
0.0
  0
LINE
  5
2538
330
1E
100
AcDbEntity
  8
0
100
AcDbLine
 10
3.36023622047244
 20
13.73720472440944
 30
0.0
 11
3.362204724409448
 21
13.6771653543307
 31
0.0
  0
LINE
  5
2539
330
1E
100
AcDbEntity
  8
0
100
AcDbLine
 10
3.083661417322834
 20
13.37007874015748
 30
0.0
 11
3.1751968503937
 21
13.48425196850393
 31
0.0
  0
LINE
  5
253A
330
1E
100
AcDbEntity
  8
0
100
AcDbLine
 10
3.187007874015748
 20
13.76771653543307
 30
0.0
 11
3.187992125984251
 21
13.70866141732283
 31
0.0
  0
LINE
  5
253B
330
1E
100
AcDbEntity
  8
0
100
AcDbLine
 10
3.431102362204724
 20
13.30807086614173
 30
0.0
 11
3.52263779527559
 21
13.42224409448818
 31
0.0
  0
LINE
  5
253C
330
1E
100
AcDbEntity
  8
0
100
AcDbLine
 10
3.534448818897637
 20
13.70570866141732
 30
0.0
 11
3.536417322834645
 21
13.64665354330708
 31
0.0
  0
LINE
  5
253D
330
1E
100
AcDbEntity
  8
0
100
AcDbLine
 10
3.605314960629921
 20
13.2765748031496
 30
0.0
 11
3.696850393700787
 21
13.39074803149606
 31
0.0
  0
LINE
  5
253E
330
1E
100
AcDbEntity
  8
0
100
AcDbLine
 10
3.708661417322834
 20
13.67421259842519
 30
0.0
 11
3.709645669291338
 21
13.61515748031496
 31
0.0
  0
LWPOLYLINE
  5
253F
330
1E
100
AcDbEntity
  8
0
100
AcDbPolyline
 90
        3
 70
     0
 43
0.0
 10
5.26279527559055
 20
14.11811023622047
 10
5.258858267716535
 20
14.09448818897637
 10
5.24507874015748
 20
14.07185039370078
  0
LINE
  5
2544
330
1E
100
AcDbEntity
  8
0
100
AcDbLine
 10
5.246062992125984
 20
14.03740157480314
 30
0.0
 11
5.24507874015748
 21
14.07185039370078
 31
0.0
  0
LWPOLYLINE
  5
2545
330
1E
100
AcDbEntity
  8
0
100
AcDbPolyline
 90
        3
 70
     0
 43
0.0
 10
5.263779527559054
 20
14.08267716535433
 10
5.258858267716535
 20
14.06003937007874
 10
5.246062992125984
 20
14.03740157480314
  0
LINE
  5
254A
330
1E
100
AcDbEntity
  8
0
100
AcDbLine
 10
4.388779527559054
 20
13.001968503937
 30
0.0
 11
5.24507874015748
 21
14.07185039370078
 31
0.0
  0
LINE
  5
254B
330
1E
100
AcDbEntity
  8
0
100
AcDbLine
 10
4.389763779527559
 20
12.96653543307086
 30
0.0
 11
4.388779527559054
 21
13.001968503937
 31
0.0
  0
LINE
  5
254C
330
1E
100
AcDbEntity
  8
0
100
AcDbLine
 10
4.389763779527559
 20
12.96653543307086
 30
0.0
 11
5.246062992125984
 21
14.03740157480314
 31
0.0
  0
LWPOLYLINE
  5
254D
330
1E
100
AcDbEntity
  8
0
100
AcDbPolyline
 90
        7
 70
     0
 43
0.0
 10
4.388779527559054
 20
13.001968503937
 10
4.359251968503937
 20
12.97440944881889
 10
4.315944881889763
 20
12.9517716535433
 10
4.26279527559055
 20
12.93503937007874
 10
4.203740157480314
 20
12.9261811023622
 10
4.14271653543307
 20
12.92421259842519
 10
4.083661417322834
 20
12.93110236220472
  0
LINE
  5
2556
330
1E
100
AcDbEntity
  8
0
100
AcDbLine
 10
4.084645669291338
 20
12.89566929133858
 30
0.0
 11
4.083661417322834
 21
12.93110236220472
 31
0.0
  0
LWPOLYLINE
  5
2557
330
1E
100
AcDbEntity
  8
0
100
AcDbPolyline
 90
        7
 70
     0
 43
0.0
 10
4.389763779527559
 20
12.96653543307086
 10
4.36023622047244
 20
12.93996062992126
 10
4.316929133858267
 20
12.91732283464567
 10
4.263779527559054
 20
12.9005905511811
 10
4.204724409448818
 20
12.89074803149606
 10
4.143700787401574
 20
12.88976377952756
 10
4.084645669291338
 20
12.89566929133858
  0
LINE
  5
2560
330
1E
100
AcDbEntity
  8
0
100
AcDbLine
 10
2.692913385826771
 20
13.18011811023622
 30
0.0
 11
4.083661417322834
 21
12.93110236220472
 31
0.0
  0
LINE
  5
2561
330
1E
100
AcDbEntity
  8
0
100
AcDbLine
 10
2.693897637795275
 20
13.14566929133858
 30
0.0
 11
2.692913385826771
 21
13.18011811023622
 31
0.0
  0
LINE
  5
2562
330
1E
100
AcDbEntity
  8
0
100
AcDbLine
 10
2.693897637795275
 20
13.14566929133858
 30
0.0
 11
4.084645669291338
 21
12.89566929133858
 31
0.0
  0
LWPOLYLINE
  5
2563
330
1E
100
AcDbEntity
  8
0
100
AcDbPolyline
 90
        5
 70
     0
 43
0.0
 10
2.692913385826771
 20
13.18011811023622
 10
2.632874015748031
 20
13.19586614173228
 10
2.586614173228346
 20
13.22047244094488
 10
2.556102362204724
 20
13.25
 10
2.545275590551181
 20
13.28346456692913
  0
LWPOLYLINE
  5
256A
330
1E
100
AcDbEntity
  8
0
100
AcDbPolyline
 90
        5
 70
     0
 43
0.0
 10
2.693897637795275
 20
13.14566929133858
 10
2.633858267716535
 20
13.16141732283464
 10
2.58759842519685
 20
13.18503937007874
 10
2.557086614173228
 20
13.21555118110236
 10
2.546259842519685
 20
13.24901574803149
  0
ENDSEC
  0
SECTION
  2
OBJECTS
  0
DICTIONARY
  5
C
330
0
100
AcDbDictionary
281
     1
  3
ACAD_GROUP
350
D
  3
ACAD_LAYOUT
350
19
  3
ACAD_MLINESTYLE
350
16
  3
ACAD_PLOTSETTINGS
350
18
  3
ACAD_PLOTSTYLENAME
350
E
  0
DICTIONARY
  5
D
102
{ACAD_REACTORS
330
C
102
}
330
C
100
AcDbDictionary
281
     1
  0
DICTIONARY
  5
19
102
{ACAD_REACTORS
330
C
102
}
330
C
100
AcDbDictionary
281
     1
  3
Layout1
350
1D
  3
Model
350
21
  0
DICTIONARY
  5
16
102
{ACAD_REACTORS
330
C
102
}
330
C
100
AcDbDictionary
281
     1
  3
Standard
350
17
  0
DICTIONARY
  5
18
102
{ACAD_REACTORS
330
C
102
}
330
C
100
AcDbDictionary
281
     1
  0
ACDBDICTIONARYWDFLT
  5
E
102
{ACAD_REACTORS
330
C
102
}
330
C
100
AcDbDictionary
281
     1
  3
Normal
350
F
100
AcDbDictionaryWithDefault
340
F
  0
LAYOUT
  5
1D
102
{ACAD_REACTORS
330
19
102
}
330
19
100
AcDbPlotSettings
  1

  2
\\BRENG\OPR-Dell 5100
  4

  6

 40
0.0
 41
0.0
 42
0.0
 43
0.0
 44
0.0
 45
0.0
 46
0.0
 47
0.0
 48
0.0
 49
0.0
140
0.0
141
0.0
142
1.0
143
1.0
 70
   688
 72
     0
 73
     0
 74
     5
  7

 75
    16
147
1.0
148
0.0
149
0.0
100
AcDbLayout
  1
Layout1
 70
     1
 71
     1
 10
0.0
 20
0.0
 11
12.0
 21
9.0
 12
0.0
 22
0.0
 32
0.0
 14
1.000000000000000E+20
 24
1.000000000000000E+20
 34
1.000000000000000E+20
 15
-1.000000000000000E+20
 25
-1.000000000000000E+20
 35
-1.000000000000000E+20
146
0.0
 13
0.0
 23
0.0
 33
0.0
 16
1.0
 26
0.0
 36
0.0
 17
0.0
 27
1.0
 37
0.0
 76
     0
330
1A
  0
LAYOUT
  5
21
102
{ACAD_REACTORS
330
19
102
}
330
19
100
AcDbPlotSettings
  1

  2
\\BRENG\OPR-Dell 5100
  4

  6

 40
0.0
 41
0.0
 42
0.0
 43
0.0
 44
0.0
 45
0.0
 46
0.0
 47
0.0
 48
0.0
 49
0.0
140
0.0
141
0.0
142
1.0
143
1.0
 70
  1712
 72
     0
 73
     0
 74
     0
  7

 75
     0
147
1.0
148
0.0
149
0.0
100
AcDbLayout
  1
Model
 70
     1
 71
     0
 10
0.0
 20
0.0
 11
12.0
 21
9.0
 12
0.0
 22
0.0
 32
0.0
 14
0.0
 24
0.0
 34
0.0
 15
0.0
 25
0.0
 35
0.0
146
0.0
 13
0.0
 23
0.0
 33
0.0
 16
1.0
 26
0.0
 36
0.0
 17
0.0
 27
1.0
 37
0.0
 76
     0
330
1E
  0
MLINESTYLE
  5
17
102
{ACAD_REACTORS
330
16
102
}
330
16
100
AcDbMlineStyle
  2
STANDARD
 70
     0
  3

 62
   256
 51
90.0
 52
90.0
 71
     2
 49
0.5
 62
   256
  6
BYLAYER
 49
-0.5
 62
   256
  6
BYLAYER
  0
ACDBPLACEHOLDER
  5
F
102
{ACAD_REACTORS
330
E
102
}
330
E
  0
ENDSEC
  0
EOF
