  0
SECTION
  2
HEADER
  9
$ACADVER
  1
AC1014
  9
$ACADMAINTVER
 70
     9
  9
$DWGCODEPAGE
  3
ANSI_1252
  9
$INSBASE
 10
0.0
 20
0.0
 30
0.0
  9
$EXTMIN
 10
16.03127479553222
 20
15.73241405189037
 30
0.0
  9
$EXTMAX
 10
79.14311981201172
 20
61.9117431640625
 30
0.0
  9
$LIMMIN
 10
-0.5
 20
-0.5
  9
$LIMMAX
 10
5.0
 20
5.0
  9
$ORTHOMODE
 70
     0
  9
$REGENMODE
 70
     1
  9
$FILLMODE
 70
     1
  9
$QTEXTMODE
 70
     0
  9
$MIRRTEXT
 70
     1
  9
$DRAGMODE
 70
     2
  9
$LTSCALE
 40
1.0
  9
$OSMODE
 70
    37
  9
$ATTMODE
 70
     1
  9
$TEXTSIZE
 40
0.0
  9
$TRACEWID
 40
0.05
  9
$TEXTSTYLE
  7
STANDARD
  9
$CLAYER
  8
0
  9
$CELTYPE
  6
CONTINUOUS
  9
$CECOLOR
 62
   256
  9
$CELTSCALE
 40
1.0
  9
$DELOBJ
 70
     1
  9
$DISPSILH
 70
     0
  9
$DIMSCALE
 40
1.0
  9
$DIMASZ
 40
0.18
  9
$DIMEXO
 40
0.0625
  9
$DIMDLI
 40
0.38
  9
$DIMRND
 40
0.0
  9
$DIMDLE
 40
0.0
  9
$DIMEXE
 40
0.18
  9
$DIMTP
 40
0.0
  9
$DIMTM
 40
0.0
  9
$DIMTXT
 40
0.18
  9
$DIMCEN
 40
0.09
  9
$DIMTSZ
 40
0.0
  9
$DIMTOL
 70
     0
  9
$DIMLIM
 70
     0
  9
$DIMTIH
 70
     1
  9
$DIMTOH
 70
     1
  9
$DIMSE1
 70
     0
  9
$DIMSE2
 70
     0
  9
$DIMTAD
 70
     0
  9
$DIMZIN
 70
     0
  9
$DIMBLK
  1

  9
$DIMASO
 70
     1
  9
$DIMSHO
 70
     1
  9
$DIMPOST
  1

  9
$DIMAPOST
  1

  9
$DIMALT
 70
     0
  9
$DIMALTD
 70
     2
  9
$DIMALTF
 40
25.4
  9
$DIMLFAC
 40
1.0
  9
$DIMTOFL
 70
     0
  9
$DIMTVP
 40
0.0
  9
$DIMTIX
 70
     0
  9
$DIMSOXD
 70
     0
  9
$DIMSAH
 70
     0
  9
$DIMBLK1
  1

  9
$DIMBLK2
  1

  9
$DIMSTYLE
  2
STANDARD
  9
$DIMCLRD
 70
     0
  9
$DIMCLRE
 70
     0
  9
$DIMCLRT
 70
     0
  9
$DIMTFAC
 40
1.0
  9
$DIMGAP
 40
0.09
  9
$DIMJUST
 70
     0
  9
$DIMSD1
 70
     0
  9
$DIMSD2
 70
     0
  9
$DIMTOLJ
 70
     1
  9
$DIMTZIN
 70
     0
  9
$DIMALTZ
 70
     0
  9
$DIMALTTZ
 70
     0
  9
$DIMFIT
 70
     3
  9
$DIMUPT
 70
     0
  9
$DIMUNIT
 70
     2
  9
$DIMDEC
 70
     4
  9
$DIMTDEC
 70
     4
  9
$DIMALTU
 70
     2
  9
$DIMALTTD
 70
     2
  9
$DIMTXSTY
  7
STANDARD
  9
$DIMAUNIT
 70
     0
  9
$LUNITS
 70
     2
  9
$LUPREC
 70
     4
  9
$SKETCHINC
 40
0.1
  9
$FILLETRAD
 40
0.0
  9
$AUNITS
 70
     0
  9
$AUPREC
 70
     0
  9
$MENU
  1
acad
  9
$ELEVATION
 40
0.0
  9
$PELEVATION
 40
0.0
  9
$THICKNESS
 40
0.0
  9
$LIMCHECK
 70
     0
  9
$BLIPMODE
 70
     0
  9
$CHAMFERA
 40
0.0
  9
$CHAMFERB
 40
0.0
  9
$CHAMFERC
 40
0.0
  9
$CHAMFERD
 40
0.0
  9
$SKPOLY
 70
     0
  9
$TDCREATE
 40
2455055.600092071
  9
$TDUPDATE
 40
2455055.602096597
  9
$TDINDWG
 40
0.0020124884
  9
$TDUSRTIMER
 40
0.0020124884
  9
$USRTIMER
 70
     1
  9
$ANGBASE
 50
0.0
  9
$ANGDIR
 70
     0
  9
$PDMODE
 70
     0
  9
$PDSIZE
 40
0.0
  9
$PLINEWID
 40
0.0
  9
$COORDS
 70
     1
  9
$SPLFRAME
 70
     0
  9
$SPLINETYPE
 70
     6
  9
$SPLINESEGS
 70
     8
  9
$ATTDIA
 70
     0
  9
$ATTREQ
 70
     1
  9
$HANDLING
 70
-16383
  9
$HANDSEED
  5
2CC
  9
$SURFTAB1
 70
     6
  9
$SURFTAB2
 70
     6
  9
$SURFTYPE
 70
     6
  9
$SURFU
 70
     6
  9
$SURFV
 70
     6
  9
$UCSNAME
  2

  9
$UCSORG
 10
0.0
 20
0.0
 30
0.0
  9
$UCSXDIR
 10
1.0
 20
0.0
 30
0.0
  9
$UCSYDIR
 10
0.0
 20
1.0
 30
0.0
  9
$PUCSNAME
  2

  9
$PUCSORG
 10
0.0
 20
0.0
 30
0.0
  9
$PUCSXDIR
 10
1.0
 20
0.0
 30
0.0
  9
$PUCSYDIR
 10
0.0
 20
1.0
 30
0.0
  9
$USERI1
 70
     0
  9
$USERI2
 70
     0
  9
$USERI3
 70
     0
  9
$USERI4
 70
     0
  9
$USERI5
 70
     0
  9
$USERR1
 40
0.0
  9
$USERR2
 40
0.0
  9
$USERR3
 40
0.0
  9
$USERR4
 40
0.0
  9
$USERR5
 40
0.0
  9
$WORLDVIEW
 70
     1
  9
$SHADEDGE
 70
     3
  9
$SHADEDIF
 70
    70
  9
$TILEMODE
 70
     1
  9
$MAXACTVP
 70
    64
  9
$PINSBASE
 10
0.0
 20
0.0
 30
0.0
  9
$PLIMCHECK
 70
     0
  9
$PEXTMIN
 10
1.000000000000000E+20
 20
1.000000000000000E+20
 30
1.000000000000000E+20
  9
$PEXTMAX
 10
-1.000000000000000E+20
 20
-1.000000000000000E+20
 30
-1.000000000000000E+20
  9
$PLIMMIN
 10
-0.6912502979669045
 20
-0.691249997597041
  9
$PLIMMAX
 10
10.3087494617372
 20
7.808749762107067
  9
$UNITMODE
 70
     0
  9
$VISRETAIN
 70
     0
  9
$PLINEGEN
 70
     1
  9
$PSLTSCALE
 70
     0
  9
$TREEDEPTH
 70
  3020
  9
$PICKSTYLE
 70
     1
  9
$CMLSTYLE
  2
STANDARD
  9
$CMLJUST
 70
     0
  9
$CMLSCALE
 40
1.0
  9
$PROXYGRAPHICS
 70
     0
  9
$MEASUREMENT
 70
     0
  0
ENDSEC
  0
SECTION
  2
CLASSES
  0
CLASS
  1
LWPOLYLINE
  2
AcDbPolyline
  3
AutoCAD 2000
 90
        0
280
     0
281
     1
  0
CLASS
  1
IMAGE
  2
AcDbRasterImage
  3
ISM
 90
      127
280
     0
281
     1
  0
CLASS
  1
OLE2FRAME
  2
AcDbOle2Frame
  3
AutoCAD 2000
 90
        0
280
     0
281
     1
  0
CLASS
  1
HATCH
  2
AcDbHatch
  3
AutoCAD 2000
 90
        0
280
     0
281
     1
  0
CLASS
  1
DICTIONARYVAR
  2
AcDbDictionaryVar
  3
AutoCAD 2000
 90
        0
280
     0
281
     0
  0
CLASS
  1
RASTERVARIABLES
  2
AcDbRasterVariables
  3
ISM
 90
        0
280
     0
281
     0
  0
CLASS
  1
IMAGEDEF
  2
AcDbRasterImageDef
  3
ISM
 90
        0
280
     0
281
     0
  0
CLASS
  1
IMAGEDEF_REACTOR
  2
AcDbRasterImageDefReactor
  3
ISM
 90
        1
280
     0
281
     0
  0
CLASS
  1
IDBUFFER
  2
AcDbIdBuffer
  3
AutoCAD 2000
 90
        0
280
     0
281
     0
  0
CLASS
  1
SPATIAL_FILTER
  2
AcDbSpatialFilter
  3
AutoCAD 2000
 90
        0
280
     0
281
     0
  0
CLASS
  1
XRECORD
  2
AcDbXrecord
  3
AutoCAD 2000
 90
        0
280
     0
281
     0
  0
CLASS
  1
SORTENTSTABLE
  2
AcDbSortentsTable
  3
AutoCAD 2000
 90
        0
280
     0
281
     0
  0
CLASS
  1
LAYER_INDEX
  2
AcDbLayerIndex
  3
AutoCAD 2000
 90
        0
280
     0
281
     0
  0
CLASS
  1
SPATIAL_INDEX
  2
AcDbSpatialIndex
  3
AutoCAD 2000
 90
        0
280
     0
281
     0
  0
CLASS
  1
OBJECT_PTR
  2
CAseDLPNTableRecord
  3
ASE-LPNTableRecord
 90
        1
280
     0
281
     0
  0
CLASS
  1
LAYOUT
  2
AcDbLayout
  3
AutoCAD 2000
 90
        0
280
     0
281
     0
  0
CLASS
  1
PLOTSETTINGS
  2
AcDbPlotSettings
  3
AutoCAD 2000
 90
        0
280
     0
281
     0
  0
CLASS
  1
ACDBDICTIONARYWDFLT
  2
AcDbDictionaryWithDefault
  3
AutoCAD 2000
 90
        0
280
     0
281
     0
  0
CLASS
  1
ACDBPLACEHOLDER
  2
AcDbPlaceHolder
  3
AutoCAD 2000
 90
        0
280
     0
281
     0
  0
CLASS
  1
VBA_PROJECT
  2
AcDbVbaProject
  3
acadvba
 90
        0
280
     0
281
     0
  0
CLASS
  1
WIPEOUT
  2
AcDbWipeout
  3
WipeOut|AutoCAD Express Tool|expresstools@autodesk.com
 90
      127
280
     0
281
     1
  0
CLASS
  1
WIPEOUTVARIABLES
  2
AcDbWipeoutVariables
  3
WipeOut|AutoCAD Express Tool|expresstools@autodesk.com
 90
        0
280
     0
281
     0
  0
CLASS
  1
RTEXT
  2
RText
  3
RText|AutoCAD Express Tool|expresstools@autodesk.com
 90
        0
280
     0
281
     1
  0
CLASS
  1
ARCALIGNEDTEXT
  2
AcDbArcAlignedText
  3
ATEXT|AutoCAD Express Tool|expresstools@autodesk.com
 90
        0
280
     0
281
     1
  0
CLASS
  1
ACAD_PROXY_OBJECT_WRAPPER
  2
AcDbProxyObjectWrapper
  3
AutoCAD 2000
 90
        0
280
     0
281
     0
  0
CLASS
  1
LONG_TRANSACTION
  2
AcDbLongTransaction
  3
AutoCAD 2000
 90
        0
280
     0
281
     0
  0
CLASS
  1
LWPOLYLINE
  2
AcDbPolyline
  3
AutoCAD 2000
 90
        0
280
     0
281
     1
  0
CLASS
  1
HATCH
  2
AcDbHatch
  3
AutoCAD 2000
 90
        0
280
     0
281
     1
  0
CLASS
  1
XRECORD
  2
AcDbXrecord
  3
AutoCAD 2000
 90
        0
280
     0
281
     0
  0
ENDSEC
  0
SECTION
  2
TABLES
  0
TABLE
  2
VPORT
  5
7
330
0
100
AcDbSymbolTable
 70
    18
  0
VPORT
  5
22B
330
7
100
AcDbSymbolTableRecord
100
AcDbViewportTableRecord
  2
L1
 70
     0
 10
0.0
 20
0.0
 11
1.0
 21
1.0
 12
0.0
 22
0.0
 13
0.0
 23
0.0
 14
1.0
 24
1.0
 15
0.0
 25
0.0
 16
0.7188730927569434
 26
-0.5850486126764432
 36
0.3754192287502549
 17
0.0
 27
0.0
 37
0.0
 40
68.96750072793771
 41
0.688564
 42
50.0
 43
34.05957066112821
 44
-34.05957066112821
 50
0.0
 51
0.0
 71
    16
 72
   100
 73
     1
 74
     1
 75
     0
 76
     0
 77
     0
 78
     0
  0
VPORT
  5
22C
330
7
100
AcDbSymbolTableRecord
100
AcDbViewportTableRecord
  2
L2
 70
     0
 10
0.0
 20
0.0
 11
0.5
 21
1.0
 12
0.0
 22
0.0
 13
0.0
 23
0.0
 14
1.0
 24
1.0
 15
0.0
 25
0.0
 16
0.0
 26
-1.0
 36
0.0
 17
0.0
 27
0.0
 37
0.0
 40
66.45769885098189
 41
0.688564
 42
50.0
 43
34.36039777289748
 44
-34.36039777289748
 50
0.0
 51
0.0
 71
    16
 72
   100
 73
     1
 74
     1
 75
     0
 76
     0
 77
     0
 78
     0
  0
VPORT
  5
22D
330
7
100
AcDbSymbolTableRecord
100
AcDbViewportTableRecord
  2
L2
 70
     0
 10
0.5
 20
0.0
 11
1.0
 21
1.0
 12
0.0
 22
0.0
 13
0.0
 23
0.0
 14
1.0
 24
1.0
 15
0.0
 25
0.0
 16
1.0
 26
0.0
 36
0.0
 17
0.0
 27
0.0
 37
0.0
 40
66.45769885098189
 41
0.688564
 42
50.0
 43
33.57466616030683
 44
-33.57466616030683
 50
0.0
 51
0.0
 71
    16
 72
   100
 73
     1
 74
     1
 75
     0
 76
     0
 77
     0
 78
     0
  0
VPORT
  5
22E
330
7
100
AcDbSymbolTableRecord
100
AcDbViewportTableRecord
  2
L3
 70
     0
 10
0.0
 20
0.5
 11
1.0
 21
1.0
 12
0.0
 22
0.0
 13
0.0
 23
0.0
 14
1.0
 24
1.0
 15
0.0
 25
0.0
 16
0.0
 26
0.0
 36
1.0
 17
0.0
 27
0.0
 37
0.0
 40
9.61286089238845
 41
0.688564
 42
50.0
 43
33.22884942549094
 44
-33.22884942549094
 50
0.0
 51
0.0
 71
    16
 72
   100
 73
     1
 74
     1
 75
     0
 76
     0
 77
     0
 78
     0
  0
VPORT
  5
22F
330
7
100
AcDbSymbolTableRecord
100
AcDbViewportTableRecord
  2
L3
 70
     0
 10
0.0
 20
0.0
 11
1.0
 21
0.5
 12
0.0
 22
0.0
 13
0.0
 23
0.0
 14
1.0
 24
1.0
 15
0.0
 25
0.0
 16
0.0
 26
-1.0
 36
0.0
 17
0.0
 27
0.0
 37
0.0
 40
66.45769885098189
 41
0.688564
 42
50.0
 43
34.36039777289748
 44
-34.36039777289748
 50
0.0
 51
0.0
 71
    16
 72
   100
 73
     1
 74
     1
 75
     0
 76
     0
 77
     0
 78
     0
  0
VPORT
  5
230
330
7
100
AcDbSymbolTableRecord
100
AcDbViewportTableRecord
  2
L4
 70
     0
 10
0.0
 20
0.5
 11
0.5
 21
1.0
 12
0.0
 22
0.0
 13
0.0
 23
0.0
 14
1.0
 24
1.0
 15
0.0
 25
0.0
 16
0.0
 26
0.0
 36
1.0
 17
0.0
 27
0.0
 37
0.0
 40
9.61286089238845
 41
0.688564
 42
50.0
 43
33.22884942549094
 44
-33.22884942549094
 50
0.0
 51
0.0
 71
    16
 72
   100
 73
     1
 74
     1
 75
     0
 76
     0
 77
     0
 78
     0
  0
VPORT
  5
231
330
7
100
AcDbSymbolTableRecord
100
AcDbViewportTableRecord
  2
L4
 70
     0
 10
0.0
 20
0.0
 11
0.5
 21
0.5
 12
0.0
 22
0.0
 13
0.0
 23
0.0
 14
1.0
 24
1.0
 15
0.0
 25
0.0
 16
0.0
 26
-1.0
 36
0.0
 17
0.0
 27
0.0
 37
0.0
 40
66.45769885098189
 41
0.688564
 42
50.0
 43
34.36039777289748
 44
-34.36039777289748
 50
0.0
 51
0.0
 71
    16
 72
   100
 73
     1
 74
     1
 75
     0
 76
     0
 77
     0
 78
     0
  0
VPORT
  5
232
330
7
100
AcDbSymbolTableRecord
100
AcDbViewportTableRecord
  2
L4
 70
     0
 10
0.5
 20
0.0
 11
1.0
 21
0.5
 12
0.0
 22
0.0
 13
0.0
 23
0.0
 14
1.0
 24
1.0
 15
0.0
 25
0.0
 16
1.0
 26
0.0
 36
0.0
 17
0.0
 27
0.0
 37
0.0
 40
66.45769885098189
 41
0.688564
 42
50.0
 43
33.57466616030683
 44
-33.57466616030683
 50
0.0
 51
0.0
 71
    16
 72
   100
 73
     1
 74
     1
 75
     0
 76
     0
 77
     0
 78
     0
  0
VPORT
  5
233
330
7
100
AcDbSymbolTableRecord
100
AcDbViewportTableRecord
  2
L4
 70
     0
 10
0.5
 20
0.5
 11
1.0
 21
1.0
 12
0.0
 22
0.0
 13
0.0
 23
0.0
 14
1.0
 24
1.0
 15
0.0
 25
0.0
 16
0.5773502691896259
 26
-0.5773502691896259
 36
0.5773502691896259
 17
0.0
 27
0.0
 37
0.0
 40
65.32743614768635
 41
0.688564
 42
50.0
 43
34.04031954589813
 44
-34.04031954589813
 50
0.0
 51
0.0
 71
    16
 72
   100
 73
     1
 74
     1
 75
     0
 76
     0
 77
     0
 78
     0
  0
VPORT
  5
234
330
7
100
AcDbSymbolTableRecord
100
AcDbViewportTableRecord
  2
L6
 70
     0
 10
0.0
 20
0.5
 11
0.3333333333333334
 21
1.0
 12
0.0
 22
0.0
 13
0.0
 23
0.0
 14
1.0
 24
1.0
 15
0.0
 25
0.0
 16
0.7188730927569434
 26
-0.5850486126764432
 36
0.3754192287502549
 17
0.0
 27
0.0
 37
0.0
 40
68.96750072793771
 41
0.688564
 42
50.0
 43
34.05957066112821
 44
-34.05957066112821
 50
0.0
 51
0.0
 71
    16
 72
   100
 73
     1
 74
     1
 75
     0
 76
     0
 77
     0
 78
     0
  0
VPORT
  5
235
330
7
100
AcDbSymbolTableRecord
100
AcDbViewportTableRecord
  2
L6
 70
     0
 10
0.0
 20
0.0
 11
0.3333333333333334
 21
0.5
 12
0.0
 22
0.0
 13
0.0
 23
0.0
 14
1.0
 24
1.0
 15
0.0
 25
0.0
 16
-1.0
 26
0.0
 36
0.0
 17
0.0
 27
0.0
 37
0.0
 40
66.45769885098189
 41
0.688564
 42
50.0
 43
33.57466616030683
 44
-33.57466616030683
 50
0.0
 51
0.0
 71
    16
 72
   100
 73
     1
 74
     1
 75
     0
 76
     0
 77
     0
 78
     0
  0
VPORT
  5
236
330
7
100
AcDbSymbolTableRecord
100
AcDbViewportTableRecord
  2
L6
 70
     0
 10
0.3333333333333334
 20
0.5
 11
0.6666666666666666
 21
1.0
 12
0.0
 22
0.0
 13
0.0
 23
0.0
 14
1.0
 24
1.0
 15
0.0
 25
0.0
 16
0.0
 26
0.0
 36
1.0
 17
0.0
 27
0.0
 37
0.0
 40
9.61286089238845
 41
0.688564
 42
50.0
 43
33.22884942549094
 44
-33.22884942549094
 50
0.0
 51
0.0
 71
    16
 72
   100
 73
     1
 74
     1
 75
     0
 76
     0
 77
     0
 78
     0
  0
VPORT
  5
237
330
7
100
AcDbSymbolTableRecord
100
AcDbViewportTableRecord
  2
L6
 70
     0
 10
0.3333333333333334
 20
0.0
 11
0.6666666666666666
 21
0.5
 12
0.0
 22
0.0
 13
0.0
 23
0.0
 14
1.0
 24
1.0
 15
0.0
 25
0.0
 16
0.0
 26
-1.0
 36
0.0
 17
0.0
 27
0.0
 37
0.0
 40
66.45769885098189
 41
0.688564
 42
50.0
 43
34.36039777289748
 44
-34.36039777289748
 50
0.0
 51
0.0
 71
    16
 72
   100
 73
     1
 74
     1
 75
     0
 76
     0
 77
     0
 78
     0
  0
VPORT
  5
238
330
7
100
AcDbSymbolTableRecord
100
AcDbViewportTableRecord
  2
L6
 70
     0
 10
0.6666666666666666
 20
0.5
 11
1.0
 21
1.0
 12
0.0
 22
0.0
 13
0.0
 23
0.0
 14
1.0
 24
1.0
 15
0.0
 25
0.0
 16
0.5773502691896259
 26
-0.5773502691896259
 36
0.5773502691896259
 17
0.0
 27
0.0
 37
0.0
 40
65.32743614768635
 41
0.688564
 42
50.0
 43
34.04031954589813
 44
-34.04031954589813
 50
0.0
 51
0.0
 71
    16
 72
   100
 73
     1
 74
     1
 75
     0
 76
     0
 77
     0
 78
     0
  0
VPORT
  5
239
330
7
100
AcDbSymbolTableRecord
100
AcDbViewportTableRecord
  2
L6
 70
     0
 10
0.6666666666666666
 20
0.0
 11
1.0
 21
0.5
 12
0.0
 22
0.0
 13
0.0
 23
0.0
 14
1.0
 24
1.0
 15
0.0
 25
0.0
 16
1.0
 26
0.0
 36
0.0
 17
0.0
 27
0.0
 37
0.0
 40
66.45769885098189
 41
0.688564
 42
50.0
 43
33.57466616030683
 44
-33.57466616030683
 50
0.0
 51
0.0
 71
    16
 72
   100
 73
     1
 74
     1
 75
     0
 76
     0
 77
     0
 78
     0
  0
VPORT
  5
2A6
330
7
100
AcDbSymbolTableRecord
100
AcDbViewportTableRecord
  2
*ACTIVE
 70
     0
 10
0.0
 20
0.0
 11
1.0
 21
1.0
 12
47.58719730377197
 22
38.82207860797644
 13
0.0
 23
0.0
 14
1.0
 24
1.0
 15
0.0
 25
0.0
 16
0.0
 26
0.0
 36
1.0
 17
0.0
 27
0.0
 37
0.0
 40
46.51846739206567
 41
1.965686274509803
 42
50.0
 43
34.05957066112821
 44
-34.05957066112821
 50
0.0
 51
0.0
 71
    16
 72
   100
 73
     1
 74
     1
 75
     0
 76
     0
 77
     0
 78
     0
  0
ENDTAB
  0
TABLE
  2
LTYPE
  5
4
330
0
100
AcDbSymbolTable
 70
     7
  0
LTYPE
  5
11
330
4
100
AcDbSymbolTableRecord
100
AcDbLinetypeTableRecord
  2
BYBLOCK
 70
     0
  3

 72
    65
 73
     0
 40
0.0
  0
LTYPE
  5
12
330
4
100
AcDbSymbolTableRecord
100
AcDbLinetypeTableRecord
  2
BYLAYER
 70
     0
  3

 72
    65
 73
     0
 40
0.0
  0
LTYPE
  5
13
330
4
100
AcDbSymbolTableRecord
100
AcDbLinetypeTableRecord
  2
CONTINUOUS
 70
     0
  3
Solid line
 72
    65
 73
     0
 40
0.0
  0
LTYPE
  5
24
330
4
100
AcDbSymbolTableRecord
100
AcDbLinetypeTableRecord
  2
DASHED
 70
     0
  3
__ __ __ __ __ __ __ __ __
 72
    65
 73
     2
 40
25.72
 49
12.86
 74
     0
 49
-12.86
 74
     0
  0
LTYPE
  5
25
330
4
100
AcDbSymbolTableRecord
100
AcDbLinetypeTableRecord
  2
HIDDEN
 70
     0
  3
_ _ _ _ _ _ _ _ _ _ _ _ _ _ _
 72
    65
 73
     2
 40
0.5
 49
0.25
 74
     0
 49
-0.25
 74
     0
  0
LTYPE
  5
26
330
4
100
AcDbSymbolTableRecord
100
AcDbLinetypeTableRecord
  2
PHANTOM
 70
     0
  3
____ _ _ ____ _ _ _____ _ _ ____
 72
    65
 73
     6
 40
50.5
 49
18.0
 74
     0
 49
-6.5
 74
     0
 49
6.5
 74
     0
 49
-6.5
 74
     0
 49
6.5
 74
     0
 49
-6.5
 74
     0
  0
LTYPE
  5
27
330
4
100
AcDbSymbolTableRecord
100
AcDbLinetypeTableRecord
  2
CENTER
 70
     0
  3
____ _ ____ _ ____ _ ____
 72
    65
 73
     4
 40
47.5
 49
22.0
 74
     0
 49
-8.5
 74
     0
 49
8.5
 74
     0
 49
-8.5
 74
     0
  0
LTYPE
  5
28
330
4
100
AcDbSymbolTableRecord
100
AcDbLinetypeTableRecord
  2
DOT
 70
     0
  3
.........................
 72
    65
 73
     2
 40
10.0
 49
0.0
 74
     0
 49
-10.0
 74
     0
  0
LTYPE
  5
29
330
4
100
AcDbSymbolTableRecord
100
AcDbLinetypeTableRecord
  2
DASHDOT
 70
     0
  3
_._._._._._._._._._._._._._._._.
 72
    65
 73
     4
 40
70.0
 49
31.0
 74
     0
 49
-13.0
 74
     0
 49
13.0
 74
     0
 49
-13.0
 74
     0
  0
ENDTAB
  0
TABLE
  2
LAYER
  5
2
330
0
100
AcDbSymbolTable
 70
     2
  0
LAYER
  5
14
330
2
100
AcDbSymbolTableRecord
100
AcDbLayerTableRecord
  2
0
 70
     0
 62
     7
  6
CONTINUOUS
  0
LAYER
  5
2B
330
2
100
AcDbSymbolTableRecord
100
AcDbLayerTableRecord
  2
TFR-TRI
 70
     0
 62
     7
  6
CONTINUOUS
  0
ENDTAB
  0
TABLE
  2
STYLE
  5
3
330
0
100
AcDbSymbolTable
 70
     1
  0
STYLE
  5
17
330
3
100
AcDbSymbolTableRecord
100
AcDbTextStyleTableRecord
  2
STANDARD
 70
     0
 40
0.0
 41
1.0
 50
0.0
 71
     0
 42
0.0
  3
txt
  4

  0
ENDTAB
  0
TABLE
  2
VIEW
  5
5
330
0
100
AcDbSymbolTable
 70
     8
  0
VIEW
  5
222
330
5
100
AcDbSymbolTableRecord
100
AcDbViewTableRecord
  2
TOP
 70
     0
 40
9.61286089238845
 10
0.0
 20
0.0
 41
17.49062617172853
 11
0.0
 21
0.0
 31
1.0
 12
0.0
 22
0.0
 32
0.0
 42
50.0
 43
33.22884942549094
 44
-33.22884942549094
 50
0.0
 71
    16
  0
VIEW
  5
223
330
5
100
AcDbSymbolTableRecord
100
AcDbViewTableRecord
  2
FRONT
 70
     0
 40
66.45769885098189
 10
0.0
 20
0.0
 41
17.49062617172853
 11
0.0
 21
-1.0
 31
0.0
 12
0.0
 22
0.0
 32
0.0
 42
50.0
 43
34.36039777289748
 44
-34.36039777289748
 50
0.0
 71
    16
  0
VIEW
  5
224
330
5
100
AcDbSymbolTableRecord
100
AcDbViewTableRecord
  2
RIGHT
 70
     0
 40
66.45769885098189
 10
0.0
 20
0.0
 41
9.61286089238845
 11
1.0
 21
0.0
 31
0.0
 12
0.0
 22
0.0
 32
0.0
 42
50.0
 43
33.57466616030683
 44
-33.57466616030683
 50
0.0
 71
    16
  0
VIEW
  5
225
330
5
100
AcDbSymbolTableRecord
100
AcDbViewTableRecord
  2
BACK
 70
     0
 40
66.45769885098189
 10
0.0
 20
0.0
 41
17.49062617172853
 11
0.0
 21
1.0
 31
0.0
 12
0.0
 22
0.0
 32
0.0
 42
50.0
 43
34.36039777289748
 44
-34.36039777289748
 50
0.0
 71
    16
  0
VIEW
  5
226
330
5
100
AcDbSymbolTableRecord
100
AcDbViewTableRecord
  2
BOTTOM
 70
     0
 40
9.61286089238845
 10
0.0
 20
0.0
 41
17.49062617172853
 11
0.0
 21
0.0
 31
-1.0
 12
0.0
 22
0.0
 32
0.0
 42
50.0
 43
33.22884942549094
 44
-33.22884942549094
 50
180.0
 71
    16
  0
VIEW
  5
227
330
5
100
AcDbSymbolTableRecord
100
AcDbViewTableRecord
  2
LEFT
 70
     0
 40
66.45769885098189
 10
0.0
 20
0.0
 41
9.61286089238845
 11
-1.0
 21
0.0
 31
0.0
 12
0.0
 22
0.0
 32
0.0
 42
50.0
 43
33.57466616030683
 44
-33.57466616030683
 50
0.0
 71
    16
  0
VIEW
  5
228
330
5
100
AcDbSymbolTableRecord
100
AcDbViewTableRecord
  2
TFR-ISO
 70
     0
 40
65.32743614768635
 10
0.0
 20
0.0
 41
19.16505949683899
 11
0.5773502691896259
 21
-0.5773502691896259
 31
0.5773502691896259
 12
0.0
 22
0.0
 32
0.0
 42
50.0
 43
34.04031954589813
 44
-34.04031954589813
 50
0.0
 71
    16
  0
VIEW
  5
229
330
5
100
AcDbSymbolTableRecord
100
AcDbViewTableRecord
  2
TFR-TRI
 70
     0
 40
68.96750072793771
 10
0.0
 20
0.0
 41
18.49619574220415
 11
0.7188730927569434
 21
-0.5850486126764432
 31
0.3754192287502549
 12
0.0
 22
0.0
 32
0.0
 42
50.0
 43
34.05957066112821
 44
-34.05957066112821
 50
0.0
 71
    16
  0
ENDTAB
  0
TABLE
  2
UCS
  5
6
330
0
100
AcDbSymbolTable
 70
     0
  0
ENDTAB
  0
TABLE
  2
APPID
  5
8
330
0
100
AcDbSymbolTable
 70
     1
  0
APPID
  5
16
330
8
100
AcDbSymbolTableRecord
100
AcDbRegAppTableRecord
  2
ACAD
 70
     0
  0
ENDTAB
  0
TABLE
  2
DIMSTYLE
  5
9
330
0
100
AcDbSymbolTable
 70
     1
  0
DIMSTYLE
105
18
330
9
100
AcDbSymbolTableRecord
100
AcDbDimStyleTableRecord
  2
STANDARD
 70
     0
  3

  4

  5

  6

  7

 40
1.0
 41
0.18
 42
0.0625
 43
0.38
 44
0.18
 45
0.0
 46
0.0
 47
0.0
 48
0.0
140
0.18
141
0.09
142
0.0
143
25.4
144
1.0
145
0.0
146
1.0
147
0.09
 71
     0
 72
     0
 73
     1
 74
     1
 75
     0
 76
     0
 77
     0
 78
     0
170
     0
171
     2
172
     0
173
     0
174
     0
175
     0
176
     0
177
     0
178
     0
270
     2
271
     4
272
     4
273
     2
274
     2
340
17
275
     0
280
     0
281
     0
282
     0
283
     1
284
     0
285
     0
286
     0
287
     3
288
     0
  0
ENDTAB
  0
TABLE
  2
BLOCK_RECORD
  5
1
330
0
100
AcDbSymbolTable
 70
     0
  0
BLOCK_RECORD
  5
A
102
{ACAD_XDICTIONARY
360
2C8
102
}
330
1
100
AcDbSymbolTableRecord
100
AcDbBlockTableRecord
  2
*MODEL_SPACE
  0
BLOCK_RECORD
  5
B
102
{ACAD_XDICTIONARY
360
2CA
102
}
330
1
100
AcDbSymbolTableRecord
100
AcDbBlockTableRecord
  2
*PAPER_SPACE
  0
ENDTAB
  0
ENDSEC
  0
SECTION
  2
BLOCKS
  0
BLOCK
  5
D
330
A
100
AcDbEntity
  8
0
100
AcDbBlockBegin
  2
*MODEL_SPACE
 70
     0
 10
0.0
 20
0.0
 30
0.0
  3
*MODEL_SPACE
  1

  0
ENDBLK
  5
E
330
A
100
AcDbEntity
  8
0
100
AcDbBlockEnd
  0
BLOCK
  5
F
330
B
100
AcDbEntity
 67
     1
  8
0
100
AcDbBlockBegin
  2
*PAPER_SPACE
 70
     0
 10
0.0
 20
0.0
 30
0.0
  3
*PAPER_SPACE
  1

  0
ENDBLK
  5
10
330
B
100
AcDbEntity
 67
     1
  8
0
100
AcDbBlockEnd
  0
ENDSEC
  0
SECTION
  2
ENTITIES
  0
LINE
  5
2A
330
A
100
AcDbEntity
  8
TFR-TRI
  6
CONTINUOUS
 62
    30
100
AcDbLine
 10
33.35364532470703
 20
47.57703018188476
 30
0.0
 11
31.23232269287109
 21
49.6983528137207
 31
0.0
  0
LINE
  5
2C
330
A
100
AcDbEntity
  8
TFR-TRI
  6
CONTINUOUS
 62
    30
100
AcDbLine
 10
33.0884780883789
 20
42.11186599731445
 30
0.0
 11
30.96715927124023
 21
44.23318481445313
 31
0.0
  0
LINE
  5
2D
330
A
100
AcDbEntity
  8
TFR-TRI
  6
CONTINUOUS
 62
    30
100
AcDbLine
 10
34.38343811035156
 20
25.44494247436523
 30
0.0
 11
34.34288787841797
 21
25.44494247436523
 31
0.0
  0
LINE
  5
2E
330
A
100
AcDbEntity
  8
TFR-TRI
  6
CONTINUOUS
 62
    30
100
AcDbLine
 10
17.70890617370605
 20
50.17703247070312
 30
0.0
 11
19.83022689819335
 21
52.2983512878418
 31
0.0
  0
LINE
  5
2F
330
A
100
AcDbEntity
  8
TFR-TRI
  6
CONTINUOUS
 62
    30
100
AcDbLine
 10
35.02175903320312
 20
25.44494247436523
 30
0.0
 11
34.99466323852539
 21
25.44494247436523
 31
0.0
  0
LINE
  5
30
330
A
100
AcDbEntity
  8
TFR-TRI
  6
CONTINUOUS
 62
     2
100
AcDbLine
 10
34.38969039916992
 20
55.55334091186523
 30
0.0
 11
34.34913635253906
 21
55.55334091186523
 31
0.0
  0
LINE
  5
31
330
A
100
AcDbEntity
  8
TFR-TRI
  6
CONTINUOUS
 62
     2
100
AcDbLine
 10
16.74050903320312
 20
55.55334091186523
 30
0.0
 11
16.71341323852539
 21
55.55334091186523
 31
0.0
  0
LINE
  5
32
330
A
100
AcDbEntity
  8
TFR-TRI
  6
CONTINUOUS
 62
    30
100
AcDbLine
 10
33.0884780883789
 20
39.51186752319335
 30
0.0
 11
30.96715927124023
 21
41.63318634033203
 31
0.0
  0
LINE
  5
33
330
A
100
AcDbEntity
  8
TFR-TRI
  6
CONTINUOUS
 62
    30
100
AcDbLine
 10
16.79181098937988
 20
25.66174125671386
 30
0.0
 11
16.78127479553222
 21
25.66174125671386
 31
0.0
  0
LINE
  5
34
330
A
100
AcDbEntity
  8
TFR-TRI
  6
CONTINUOUS
 62
     2
100
AcDbLine
 10
16.10844039916992
 20
55.55334091186523
 30
0.0
 11
16.06788635253906
 21
55.55334091186523
 31
0.0
  0
LINE
  5
35
330
A
100
AcDbEntity
  8
TFR-TRI
  6
CONTINUOUS
 62
    30
100
AcDbLine
 10
43.64311599731445
 20
16.45741462707519
 30
0.0
 11
72.7841796875
 21
16.45741462707519
 31
0.0
  0
LINE
  5
36
330
A
100
AcDbEntity
  8
TFR-TRI
  6
CONTINUOUS
 62
    30
100
AcDbLine
 10
26.45890617370605
 20
42.37702941894531
 30
0.0
 11
28.58022689819335
 21
44.49835205078125
 31
0.0
  0
LINE
  5
37
330
A
100
AcDbEntity
  8
TFR-TRI
  6
CONTINUOUS
 62
    30
100
AcDbLine
 10
16.95887565612792
 20
17.45741462707519
 30
0.0
 11
16.95887565612792
 21
17.44687843322753
 31
0.0
  0
LINE
  5
38
330
A
100
AcDbEntity
  8
TFR-TRI
  6
CONTINUOUS
 62
     2
100
AcDbLine
 10
16.62502479553222
 20
55.55334091186523
 30
0.0
 11
16.62502479553222
 21
55.6617431640625
 31
0.0
  0
LINE
  5
39
330
A
100
AcDbEntity
  8
TFR-TRI
  6
CONTINUOUS
 62
     2
100
AcDbLine
 10
16.03127479553222
 20
55.55334091186523
 30
0.0
 11
16.03127479553222
 21
55.6617431640625
 31
0.0
  0
LINE
  5
3A
330
A
100
AcDbEntity
  8
TFR-TRI
  6
CONTINUOUS
 62
     2
100
AcDbLine
 10
72.78471374511719
 20
15.73241424560547
 30
0.0
 11
72.78471374511719
 21
15.74192905426025
 31
0.0
  0
LINE
  5
3B
330
A
100
AcDbEntity
  8
TFR-TRI
  6
CONTINUOUS
 62
     2
100
AcDbLine
 10
16.03127479553222
 20
55.6617431640625
 30
0.0
 11
16.04079055786132
 21
55.6617431640625
 31
0.0
  0
LINE
  5
3C
330
A
100
AcDbEntity
  8
TFR-TRI
  6
CONTINUOUS
 62
     2
100
AcDbLine
 10
16.04079055786132
 20
55.6617431640625
 30
0.0
 11
16.06788635253906
 21
55.6617431640625
 31
0.0
  0
LINE
  5
3D
330
A
100
AcDbEntity
  8
TFR-TRI
  6
CONTINUOUS
 62
    30
100
AcDbLine
 10
33.35364532470703
 20
29.37703132629394
 30
0.0
 11
31.23232269287109
 21
31.49835205078125
 31
0.0
  0
LINE
  5
3E
330
A
100
AcDbEntity
  8
TFR-TRI
  6
CONTINUOUS
 62
    30
100
AcDbLine
 10
34.10367584228515
 20
17.37197685241699
 30
0.0
 11
34.10367584228515
 21
17.31901359558105
 31
0.0
  0
LINE
  5
3F
330
A
100
AcDbEntity
  8
TFR-TRI
  6
CONTINUOUS
 62
    30
100
AcDbLine
 10
16.95887565612792
 20
25.58334159851074
 30
0.0
 11
16.95887565612792
 21
25.5303783416748
 31
0.0
  0
LINE
  5
40
330
A
100
AcDbEntity
  8
TFR-TRI
  6
CONTINUOUS
 62
     2
100
AcDbLine
 10
35.03127670288086
 20
55.55334091186523
 30
0.0
 11
35.02175903320312
 21
55.55334091186523
 31
0.0
  0
LINE
  5
41
330
A
100
AcDbEntity
  8
TFR-TRI
  6
CONTINUOUS
 62
    30
100
AcDbLine
 10
26.45890617370605
 20
55.37702941894531
 30
0.0
 11
28.58022689819335
 21
57.49835205078125
 31
0.0
  0
LINE
  5
42
330
A
100
AcDbEntity
  8
TFR-TRI
  6
CONTINUOUS
 62
     2
100
AcDbLine
 10
16.75807189941406
 20
55.6617431640625
 30
0.0
 11
16.78127670288086
 21
55.6617431640625
 31
0.0
  0
LINE
  5
43
330
A
100
AcDbEntity
  8
TFR-TRI
  6
CONTINUOUS
 62
    30
100
AcDbLine
 10
24.3384780883789
 20
55.11186599731445
 30
0.0
 11
22.21715927124023
 21
57.23318481445312
 31
0.0
  0
LINE
  5
44
330
A
100
AcDbEntity
  8
TFR-TRI
  6
CONTINUOUS
 62
     2
100
AcDbLine
 10
34.31252670288086
 20
55.6617431640625
 30
0.0
 11
34.32204055786133
 21
55.6617431640625
 31
0.0
  0
LINE
  5
45
330
A
100
AcDbEntity
  8
TFR-TRI
  6
CONTINUOUS
 62
    30
100
AcDbLine
 10
17.70890617370605
 20
39.77703094482421
 30
0.0
 11
19.83022689819335
 21
41.89834976196289
 31
0.0
  0
LINE
  5
46
330
A
100
AcDbEntity
  8
TFR-TRI
  6
CONTINUOUS
 62
    30
100
AcDbLine
 10
34.10367584228515
 20
25.45547676086425
 30
0.0
 11
34.10367584228515
 21
25.44494247436523
 31
0.0
  0
LINE
  5
47
330
A
100
AcDbEntity
  8
TFR-TRI
  6
CONTINUOUS
 62
    30
100
AcDbLine
 10
42.89311599731445
 20
17.41687774658203
 30
0.0
 11
42.89311599731445
 21
17.37197685241699
 31
0.0
  0
LINE
  5
48
330
A
100
AcDbEntity
  8
TFR-TRI
  6
CONTINUOUS
 62
     2
100
AcDbLine
 10
72.72471618652343
 20
15.8408145904541
 30
0.0
 11
72.72471618652343
 21
15.73241424560547
 31
0.0
  0
LINE
  5
49
330
A
100
AcDbEntity
  8
TFR-TRI
  6
CONTINUOUS
 62
    30
100
AcDbLine
 10
16.06788635253906
 20
25.55334281921386
 30
0.0
 11
16.10844039916992
 21
25.55334281921386
 31
0.0
  0
LINE
  5
4A
330
A
100
AcDbEntity
  8
TFR-TRI
  6
CONTINUOUS
 62
    30
100
AcDbLine
 10
24.60364341735839
 20
44.97703170776367
 30
0.0
 11
22.48232269287109
 21
47.09835052490234
 31
0.0
  0
LINE
  5
4B
330
A
100
AcDbEntity
  8
TFR-TRI
  6
CONTINUOUS
 62
    30
100
AcDbLine
 10
42.67631530761718
 20
15.74192905426025
 30
0.0
 11
42.67631530761718
 21
15.7690258026123
 31
0.0
  0
LINE
  5
4C
330
A
100
AcDbEntity
  8
TFR-TRI
  6
CONTINUOUS
 62
    30
100
AcDbLine
 10
34.10367584228515
 20
25.44494247436523
 30
0.0
 11
34.3062744140625
 21
25.44494247436523
 31
0.0
  0
LINE
  5
4D
330
A
100
AcDbEntity
  8
TFR-TRI
  6
CONTINUOUS
 62
     2
100
AcDbLine
 10
72.32132720947266
 20
15.73241424560547
 30
0.0
 11
72.29422760009765
 21
15.73241424560547
 31
0.0
  0
LINE
  5
4E
330
A
100
AcDbEntity
  8
TFR-TRI
  6
CONTINUOUS
 62
    30
100
AcDbLine
 10
16.03127479553222
 20
17.33241462707519
 30
0.0
 11
16.03127479553222
 21
15.85741424560547
 31
0.0
  0
LINE
  5
4F
330
A
100
AcDbEntity
  8
TFR-TRI
  6
CONTINUOUS
 62
    30
100
AcDbLine
 10
34.10367584228515
 20
25.66174125671386
 30
0.0
 11
34.14287567138671
 21
25.66174125671386
 31
0.0
  0
LINE
  5
50
330
A
100
AcDbEntity
  8
TFR-TRI
  6
CONTINUOUS
 62
    30
100
AcDbLine
 10
16.15627479553222
 20
25.44494247436523
 30
0.0
 11
16.10844039916992
 21
25.44494247436523
 31
0.0
  0
LINE
  5
51
330
A
100
AcDbEntity
  8
TFR-TRI
  6
CONTINUOUS
 62
    30
100
AcDbLine
 10
16.31377410888672
 20
16.09491348266601
 30
0.0
 11
16.43877410888672
 21
16.09491348266601
 31
0.0
  0
LINE
  5
52
330
A
100
AcDbEntity
  8
TFR-TRI
  6
CONTINUOUS
 62
     2
100
AcDbLine
 10
72.78471374511719
 20
17.42080307006836
 30
0.0
 11
72.78471374511719
 21
17.44789886474609
 31
0.0
  0
LINE
  5
53
330
A
100
AcDbEntity
  8
TFR-TRI
  6
CONTINUOUS
 62
    30
100
AcDbLine
 10
34.95410919189453
 20
25.44494247436523
 30
0.0
 11
34.90627670288086
 21
25.44494247436523
 31
0.0
  0
LINE
  5
54
330
A
100
AcDbEntity
  8
TFR-TRI
  6
CONTINUOUS
 62
    30
100
AcDbLine
 10
16.86671066284179
 20
25.66174125671386
 30
0.0
 11
16.82181167602539
 21
25.66174125671386
 31
0.0
  0
LINE
  5
55
330
A
100
AcDbEntity
  8
TFR-TRI
  6
CONTINUOUS
 62
    30
100
AcDbLine
 10
42.67631530761718
 20
15.73241424560547
 30
0.0
 11
42.67631530761718
 21
15.74192905426025
 31
0.0
  0
LINE
  5
56
330
A
100
AcDbEntity
  8
TFR-TRI
  6
CONTINUOUS
 62
    30
100
AcDbLine
 10
16.04079055786132
 20
25.44494247436523
 30
0.0
 11
16.03127479553222
 21
25.44494247436523
 31
0.0
  0
LINE
  5
57
330
A
100
AcDbEntity
  8
TFR-TRI
  6
CONTINUOUS
 62
    30
100
AcDbLine
 10
72.892822265625
 20
17.31901359558105
 30
0.0
 11
79.14311981201172
 21
17.31901359558105
 31
0.0
  0
LINE
  5
58
330
A
100
AcDbEntity
  8
TFR-TRI
  6
CONTINUOUS
 62
    30
100
AcDbLine
 10
34.95410919189453
 20
25.55334281921386
 30
0.0
 11
34.99466323852539
 21
25.55334281921386
 31
0.0
  0
LINE
  5
59
330
A
100
AcDbEntity
  8
TFR-TRI
  6
CONTINUOUS
 62
    30
100
AcDbLine
 10
26.72407150268554
 20
26.51186561584472
 30
0.0
 11
28.84539222717285
 21
28.63318634033203
 31
0.0
  0
LINE
  5
5A
330
A
100
AcDbEntity
  8
TFR-TRI
  6
CONTINUOUS
 62
    30
100
AcDbLine
 10
24.60364341735839
 20
31.97703170776367
 30
0.0
 11
22.48232269287109
 21
34.09835052490234
 31
0.0
  0
LINE
  5
5B
330
A
100
AcDbEntity
  8
TFR-TRI
  6
CONTINUOUS
 62
    30
100
AcDbLine
 10
42.67631530761718
 20
17.42080307006836
 30
0.0
 11
42.67631530761718
 21
17.44789886474609
 31
0.0
  0
LINE
  5
5C
330
A
100
AcDbEntity
  8
TFR-TRI
  6
CONTINUOUS
 62
    30
100
AcDbLine
 10
16.15627479553222
 20
25.55334281921386
 30
0.0
 11
16.63127517700195
 21
25.55334281921386
 31
0.0
  0
LINE
  5
5D
330
A
100
AcDbEntity
  8
TFR-TRI
  6
CONTINUOUS
 62
    30
100
AcDbLine
 10
16.75627517700195
 20
25.44494247436523
 30
0.0
 11
16.74675941467285
 21
25.44494247436523
 31
0.0
  0
LINE
  5
5E
330
A
100
AcDbEntity
  8
TFR-TRI
  6
CONTINUOUS
 62
    30
100
AcDbLine
 10
42.78471755981445
 20
17.45741462707519
 30
0.0
 11
42.78471755981445
 21
17.44789886474609
 31
0.0
  0
LINE
  5
5F
330
A
100
AcDbEntity
  8
TFR-TRI
  6
CONTINUOUS
 62
    30
100
AcDbLine
 10
16.03127479553222
 20
25.44494247436523
 30
0.0
 11
16.03127479553222
 21
25.55334281921386
 31
0.0
  0
LINE
  5
60
330
A
100
AcDbEntity
  8
TFR-TRI
  6
CONTINUOUS
 62
    30
100
AcDbLine
 10
17.97407150268554
 20
57.71186447143555
 30
0.0
 11
20.09539222717285
 21
59.83318710327148
 31
0.0
  0
LINE
  5
61
330
A
100
AcDbEntity
  8
TFR-TRI
  6
CONTINUOUS
 62
    30
100
AcDbLine
 10
42.67631530761718
 20
17.45741462707519
 30
0.0
 11
42.78471755981445
 21
17.45741462707519
 31
0.0
  0
LINE
  5
62
330
A
100
AcDbEntity
  8
TFR-TRI
  6
CONTINUOUS
 62
    30
100
AcDbLine
 10
16.95887565612792
 20
17.45741462707519
 30
0.0
 11
34.10367584228515
 21
17.45741462707519
 31
0.0
  0
LINE
  5
63
330
A
100
AcDbEntity
  8
TFR-TRI
  6
CONTINUOUS
 62
    30
100
AcDbLine
 10
34.90627670288086
 20
25.44494247436523
 30
0.0
 11
34.90627670288086
 21
25.55334281921386
 31
0.0
  0
LINE
  5
64
330
A
100
AcDbEntity
  8
TFR-TRI
  6
CONTINUOUS
 62
    30
100
AcDbLine
 10
33.35364532470703
 20
44.97703170776367
 30
0.0
 11
31.23232269287109
 21
47.09835052490234
 31
0.0
  0
LINE
  5
65
330
A
100
AcDbEntity
  8
TFR-TRI
  6
CONTINUOUS
 62
    30
100
AcDbLine
 10
34.10367584228515
 20
25.66174125671386
 30
0.0
 11
34.10367584228515
 21
25.58334159851074
 31
0.0
  0
LINE
  5
66
330
A
100
AcDbEntity
  8
TFR-TRI
  6
CONTINUOUS
 62
    30
100
AcDbLine
 10
17.70890617370605
 20
47.57703018188476
 30
0.0
 11
19.83022689819335
 21
49.6983528137207
 31
0.0
  0
LINE
  5
67
330
A
100
AcDbEntity
  8
TFR-TRI
  6
CONTINUOUS
 62
    30
100
AcDbLine
 10
72.89289855957031
 20
16.5958137512207
 30
0.0
 11
79.14311981201172
 21
16.5958137512207
 31
0.0
  0
LINE
  5
68
330
A
100
AcDbEntity
  8
TFR-TRI
  6
CONTINUOUS
 62
    30
100
AcDbLine
 10
33.0884780883789
 20
36.911865234375
 30
0.0
 11
30.96715927124023
 21
39.03318786621094
 31
0.0
  0
LINE
  5
69
330
A
100
AcDbEntity
  8
TFR-TRI
  6
CONTINUOUS
 62
     2
100
AcDbLine
 10
34.43752670288086
 20
55.6617431640625
 30
0.0
 11
34.43752670288086
 21
55.55334091186523
 31
0.0
  0
LINE
  5
6A
330
A
100
AcDbEntity
  8
TFR-TRI
  6
CONTINUOUS
 62
    30
100
AcDbLine
 10
26.45890617370605
 20
39.77703094482421
 30
0.0
 11
28.58022689819335
 21
41.89834976196289
 31
0.0
  0
LINE
  5
6B
330
A
100
AcDbEntity
  8
TFR-TRI
  6
CONTINUOUS
 62
    30
100
AcDbLine
 10
42.89311599731445
 20
17.45741462707519
 30
0.0
 11
42.81471633911133
 21
17.45741462707519
 31
0.0
  0
LINE
  5
6C
330
A
100
AcDbEntity
  8
TFR-TRI
  6
CONTINUOUS
 62
    30
100
AcDbLine
 10
16.63127517700195
 20
25.44494247436523
 30
0.0
 11
16.63127517700195
 21
25.55334281921386
 31
0.0
  0
LINE
  5
6D
330
A
100
AcDbEntity
  8
TFR-TRI
  6
CONTINUOUS
 62
     2
100
AcDbLine
 10
34.32204055786133
 20
55.55334091186523
 30
0.0
 11
34.31252670288086
 21
55.55334091186523
 31
0.0
  0
LINE
  5
6E
330
A
100
AcDbEntity
  8
TFR-TRI
  6
CONTINUOUS
 62
    30
100
AcDbLine
 10
42.67631530761718
 20
15.7690258026123
 30
0.0
 11
42.67631530761718
 21
15.80957889556884
 31
0.0
  0
LINE
  5
6F
330
A
100
AcDbEntity
  8
TFR-TRI
  6
CONTINUOUS
 62
     2
100
AcDbLine
 10
34.30447769165039
 20
55.6617431640625
 30
0.0
 11
34.31252670288086
 21
55.6617431640625
 31
0.0
  0
LINE
  5
70
330
A
100
AcDbEntity
  8
TFR-TRI
  6
CONTINUOUS
 62
     2
100
AcDbLine
 10
16.62502479553222
 20
55.6617431640625
 30
0.0
 11
16.67286109924316
 21
55.6617431640625
 31
0.0
  0
LINE
  5
71
330
A
100
AcDbEntity
  8
TFR-TRI
  6
CONTINUOUS
 62
     2
100
AcDbLine
 10
34.38969039916992
 20
55.6617431640625
 30
0.0
 11
34.43752670288086
 21
55.6617431640625
 31
0.0
  0
LINE
  5
72
330
A
100
AcDbEntity
  8
TFR-TRI
  6
CONTINUOUS
 62
    30
100
AcDbLine
 10
33.35364532470703
 20
26.77703094482422
 30
0.0
 11
31.23232269287109
 21
28.89835166931152
 31
0.0
  0
LINE
  5
73
330
A
100
AcDbEntity
  8
TFR-TRI
  6
CONTINUOUS
 62
    30
100
AcDbLine
 10
34.74877548217773
 20
15.84491443634033
 30
0.0
 11
34.62377548217773
 21
15.84491443634033
 31
0.0
  0
LINE
  5
74
330
A
100
AcDbEntity
  8
TFR-TRI
  6
CONTINUOUS
 62
    30
100
AcDbLine
 10
16.71966361999511
 20
25.55334281921386
 30
0.0
 11
16.74675941467285
 21
25.55334281921386
 31
0.0
  0
LINE
  5
75
330
A
100
AcDbEntity
  8
TFR-TRI
  6
CONTINUOUS
 62
    30
100
AcDbLine
 10
42.89311599731445
 20
17.31901359558105
 30
0.0
 11
42.89311599731445
 21
16.62581443786621
 31
0.0
  0
LINE
  5
76
330
A
100
AcDbEntity
  8
TFR-TRI
  6
CONTINUOUS
 62
     2
100
AcDbLine
 10
32.53846359252929
 20
55.6617431640625
 30
0.0
 11
33.06891632080078
 21
55.6617431640625
 31
0.0
  0
LINE
  5
77
330
A
100
AcDbEntity
  8
TFR-TRI
  6
CONTINUOUS
 62
     2
100
AcDbLine
 10
16.74050903320312
 20
55.6617431640625
 30
0.0
 11
16.75002479553222
 21
55.6617431640625
 31
0.0
  0
LINE
  5
78
330
A
100
AcDbEntity
  8
TFR-TRI
  6
CONTINUOUS
 62
    30
100
AcDbLine
 10
24.3384780883789
 20
52.51186752319336
 30
0.0
 11
22.21715927124023
 21
54.63318634033203
 31
0.0
  0
LINE
  5
79
330
A
100
AcDbEntity
  8
TFR-TRI
  6
CONTINUOUS
 62
    30
100
AcDbLine
 10
34.10367584228515
 20
25.58334159851074
 30
0.0
 11
34.10367584228515
 21
25.5303783416748
 31
0.0
  0
LINE
  5
7A
330
A
100
AcDbEntity
  8
TFR-TRI
  6
CONTINUOUS
 62
     2
100
AcDbLine
 10
72.89311981201172
 20
17.45741462707519
 30
0.0
 11
72.89311981201172
 21
17.44789886474609
 31
0.0
  0
LINE
  5
7B
330
A
100
AcDbEntity
  8
TFR-TRI
  6
CONTINUOUS
 62
     2
100
AcDbLine
 10
72.89311981201172
 20
17.44789886474609
 30
0.0
 11
72.89311981201172
 21
17.42080307006836
 31
0.0
  0
LINE
  5
7C
330
A
100
AcDbEntity
  8
TFR-TRI
  6
CONTINUOUS
 62
     2
100
AcDbLine
 10
72.89311981201172
 20
17.42080307006836
 30
0.0
 11
72.89311981201172
 21
17.3802490234375
 31
0.0
  0
LINE
  5
7D
330
A
100
AcDbEntity
  8
TFR-TRI
  6
CONTINUOUS
 62
     2
100
AcDbLine
 10
34.31252670288086
 20
55.55334091186523
 30
0.0
 11
34.31252670288086
 21
55.6617431640625
 31
0.0
  0
LINE
  5
7E
330
A
100
AcDbEntity
  8
TFR-TRI
  6
CONTINUOUS
 62
     2
100
AcDbLine
 10
34.30447769165039
 20
55.55334091186523
 30
0.0
 11
34.28127288818359
 21
55.55334091186523
 31
0.0
  0
LINE
  5
7F
330
A
100
AcDbEntity
  8
TFR-TRI
  6
CONTINUOUS
 62
     2
100
AcDbLine
 10
72.72471618652343
 20
15.73241424560547
 30
0.0
 11
72.40971374511719
 21
15.73241424560547
 31
0.0
  0
LINE
  5
80
330
A
100
AcDbEntity
  8
TFR-TRI
  6
CONTINUOUS
 62
    30
100
AcDbLine
 10
24.60364341735839
 20
42.37702941894531
 30
0.0
 11
22.48232269287109
 21
44.49835205078125
 31
0.0
  0
LINE
  5
81
330
A
100
AcDbEntity
  8
TFR-TRI
  6
CONTINUOUS
 62
     2
100
AcDbLine
 10
22.20724296569824
 20
54.88744354248047
 30
0.0
 11
22.49332237243652
 21
54.88744354248047
 31
0.0
  0
LINE
  5
82
330
A
100
AcDbEntity
  8
TFR-TRI
  6
CONTINUOUS
 62
    30
100
AcDbLine
 10
16.71966361999511
 20
25.44494247436523
 30
0.0
 11
16.67910957336425
 21
25.44494247436523
 31
0.0
  0
LINE
  5
83
330
A
100
AcDbEntity
  8
TFR-TRI
  6
CONTINUOUS
 62
    30
100
AcDbLine
 10
35.03127670288086
 20
15.85741424560547
 30
0.0
 11
35.03127670288086
 21
17.33241462707519
 31
0.0
  0
LINE
  5
84
330
A
100
AcDbEntity
  8
TFR-TRI
  6
CONTINUOUS
 62
    30
100
AcDbLine
 10
16.91967582702636
 20
61.9117431640625
 30
0.0
 11
34.14287567138671
 21
61.9117431640625
 31
0.0
  0
LINE
  5
85
330
A
100
AcDbEntity
  8
TFR-TRI
  6
CONTINUOUS
 62
    30
100
AcDbLine
 10
16.91967582702636
 20
61.9117431640625
 30
0.0
 11
16.91967582702636
 21
25.66174125671386
 31
0.0
  0
LINE
  5
86
330
A
100
AcDbEntity
  8
TFR-TRI
  6
CONTINUOUS
 62
     2
100
AcDbLine
 10
72.78471374511719
 20
17.33241462707519
 30
0.0
 11
72.78471374511719
 21
15.85741424560547
 31
0.0
  0
LINE
  5
87
330
A
100
AcDbEntity
  8
TFR-TRI
  6
CONTINUOUS
 62
    30
100
AcDbLine
 10
34.3062744140625
 20
17.31901359558105
 30
0.0
 11
34.3062744140625
 21
17.33241462707519
 31
0.0
  0
LINE
  5
88
330
A
100
AcDbEntity
  8
TFR-TRI
  6
CONTINUOUS
 62
     2
100
AcDbLine
 10
72.89311981201172
 20
15.85741424560547
 30
0.0
 11
72.89311981201172
 21
17.33241462707519
 31
0.0
  0
LINE
  5
89
330
A
100
AcDbEntity
  8
TFR-TRI
  6
CONTINUOUS
 62
    30
100
AcDbLine
 10
26.72407150268554
 20
57.71186447143555
 30
0.0
 11
28.84539222717285
 21
59.83318710327148
 31
0.0
  0
LINE
  5
8A
330
A
100
AcDbEntity
  8
TFR-TRI
  6
CONTINUOUS
 62
    30
100
AcDbLine
 10
34.31578826904297
 20
25.44494247436523
 30
0.0
 11
34.3062744140625
 21
25.44494247436523
 31
0.0
  0
LINE
  5
8B
330
A
100
AcDbEntity
  8
TFR-TRI
  6
CONTINUOUS
 62
    30
100
AcDbLine
 10
26.45890617370605
 20
50.17703247070312
 30
0.0
 11
28.58022689819335
 21
52.2983512878418
 31
0.0
  0
LINE
  5
8C
330
A
100
AcDbEntity
  8
TFR-TRI
  6
CONTINUOUS
 62
    30
100
AcDbLine
 10
42.89311599731445
 20
17.45741462707519
 30
0.0
 11
72.78463745117187
 21
17.45741462707519
 31
0.0
  0
LINE
  5
8D
330
A
100
AcDbEntity
  8
TFR-TRI
  6
CONTINUOUS
 62
    30
100
AcDbLine
 10
33.0884780883789
 20
57.71186447143555
 30
0.0
 11
30.96715927124023
 21
59.83318710327148
 31
0.0
  0
LINE
  5
8E
330
A
100
AcDbEntity
  8
TFR-TRI
  6
CONTINUOUS
 62
    30
100
AcDbLine
 10
24.60364341735839
 20
29.37703132629394
 30
0.0
 11
22.48232269287109
 21
31.49835205078125
 31
0.0
  0
LINE
  5
8F
330
A
100
AcDbEntity
  8
TFR-TRI
  6
CONTINUOUS
 62
     2
100
AcDbLine
 10
34.43752670288086
 20
55.55334091186523
 30
0.0
 11
34.90627670288086
 21
55.55334091186523
 31
0.0
  0
LINE
  5
90
330
A
100
AcDbEntity
  8
TFR-TRI
  6
CONTINUOUS
 62
    30
100
AcDbLine
 10
34.3062744140625
 20
25.44494247436523
 30
0.0
 11
34.3062744140625
 21
25.55334281921386
 31
0.0
  0
LINE
  5
91
330
A
100
AcDbEntity
  8
TFR-TRI
  6
CONTINUOUS
 62
    30
100
AcDbLine
 10
33.0884780883789
 20
52.51186752319336
 30
0.0
 11
30.96715927124023
 21
54.63318634033203
 31
0.0
  0
LINE
  5
92
330
A
100
AcDbEntity
  8
TFR-TRI
  6
CONTINUOUS
 62
    30
100
AcDbLine
 10
16.91967582702636
 20
61.9117431640625
 30
0.0
 11
16.86671066284179
 21
61.9117431640625
 31
0.0
  0
LINE
  5
93
330
A
100
AcDbEntity
  8
TFR-TRI
  6
CONTINUOUS
 62
    30
100
AcDbLine
 10
17.97407150268554
 20
55.11186599731445
 30
0.0
 11
20.09539222717285
 21
57.23318481445312
 31
0.0
  0
LINE
  5
94
330
A
100
AcDbEntity
  8
TFR-TRI
  6
CONTINUOUS
 62
    30
100
AcDbLine
 10
17.97407150268554
 20
42.11186599731445
 30
0.0
 11
20.09539222717285
 21
44.23318481445313
 31
0.0
  0
LINE
  5
95
330
A
100
AcDbEntity
  8
TFR-TRI
  6
CONTINUOUS
 62
     2
100
AcDbLine
 10
26.57518196105957
 20
55.49334335327149
 30
0.0
 11
27.10536956787109
 21
55.49334335327149
 31
0.0
  0
LINE
  5
96
330
A
100
AcDbEntity
  8
TFR-TRI
  6
CONTINUOUS
 62
    30
100
AcDbLine
 10
79.14311981201172
 20
17.31901359558105
 30
0.0
 11
79.14311981201172
 21
16.5958137512207
 31
0.0
  0
LINE
  5
97
330
A
100
AcDbEntity
  8
TFR-TRI
  6
CONTINUOUS
 62
    30
100
AcDbLine
 10
34.19583892822265
 20
25.66174125671386
 30
0.0
 11
34.24073791503906
 21
25.66174125671386
 31
0.0
  0
LINE
  5
98
330
A
100
AcDbEntity
  8
TFR-TRI
  6
CONTINUOUS
 62
    30
100
AcDbLine
 10
16.95887565612792
 20
17.34901428222656
 30
0.0
 11
16.91967582702636
 21
17.34901428222656
 31
0.0
  0
LINE
  5
99
330
A
100
AcDbEntity
  8
TFR-TRI
  6
CONTINUOUS
 62
     2
100
AcDbLine
 10
34.90627670288086
 20
55.6617431640625
 30
0.0
 11
34.95410919189453
 21
55.6617431640625
 31
0.0
  0
LINE
  5
9A
330
A
100
AcDbEntity
  8
TFR-TRI
  6
CONTINUOUS
 62
    30
100
AcDbLine
 10
17.97407150268554
 20
29.11186599731445
 30
0.0
 11
20.09539222717285
 21
31.23318672180175
 31
0.0
  0
LINE
  5
9B
330
A
100
AcDbEntity
  8
TFR-TRI
  6
CONTINUOUS
 62
     2
100
AcDbLine
 10
16.71341323852539
 20
55.55334091186523
 30
0.0
 11
16.67286109924316
 21
55.55334091186523
 31
0.0
  0
LINE
  5
9C
330
A
100
AcDbEntity
  8
TFR-TRI
  6
CONTINUOUS
 62
    30
100
AcDbLine
 10
26.72407150268554
 20
47.3118667602539
 30
0.0
 11
28.84539222717285
 21
49.43318557739257
 31
0.0
  0
LINE
  5
9D
330
A
100
AcDbEntity
  8
TFR-TRI
  6
CONTINUOUS
 62
    30
100
AcDbLine
 10
16.78127479553222
 20
61.9117431640625
 30
0.0
 11
16.78127479553222
 21
25.66174125671386
 31
0.0
  0
LINE
  5
9E
330
A
100
AcDbEntity
  8
TFR-TRI
  6
CONTINUOUS
 62
     2
100
AcDbLine
 10
16.06788635253906
 20
55.55334091186523
 30
0.0
 11
16.04079055786132
 21
55.55334091186523
 31
0.0
  0
LINE
  5
9F
330
A
100
AcDbEntity
  8
TFR-TRI
  6
CONTINUOUS
 62
    30
100
AcDbLine
 10
17.97407150268554
 20
47.3118667602539
 30
0.0
 11
20.09539222717285
 21
49.43318557739257
 31
0.0
  0
LINE
  5
A0
330
A
100
AcDbEntity
  8
TFR-TRI
  6
CONTINUOUS
 62
    30
100
AcDbLine
 10
72.89289855957031
 20
16.45741462707519
 30
0.0
 11
79.14311981201172
 21
16.45741462707519
 31
0.0
  0
LINE
  5
A1
330
A
100
AcDbEntity
  8
TFR-TRI
  6
CONTINUOUS
 62
    30
100
AcDbLine
 10
33.0884780883789
 20
34.3118667602539
 30
0.0
 11
30.96715927124023
 21
36.43318557739258
 31
0.0
  0
LINE
  5
A2
330
A
100
AcDbEntity
  8
TFR-TRI
  6
CONTINUOUS
 62
     2
100
AcDbLine
 10
16.06788635253906
 20
55.6617431640625
 30
0.0
 11
16.10844039916992
 21
55.6617431640625
 31
0.0
  0
LINE
  5
A3
330
A
100
AcDbEntity
  8
TFR-TRI
  6
CONTINUOUS
 62
    30
100
AcDbLine
 10
24.60364341735839
 20
37.17703247070312
 30
0.0
 11
22.48232269287109
 21
39.2983512878418
 31
0.0
  0
LINE
  5
A4
330
A
100
AcDbEntity
  8
TFR-TRI
  6
CONTINUOUS
 62
    30
100
AcDbLine
 10
17.70890617370605
 20
57.97703170776367
 30
0.0
 11
19.83022689819335
 21
60.09835052490235
 31
0.0
  0
LINE
  5
A5
330
A
100
AcDbEntity
  8
TFR-TRI
  6
CONTINUOUS
 62
     2
100
AcDbLine
 10
72.32132720947266
 20
15.8408145904541
 30
0.0
 11
72.36187744140625
 21
15.8408145904541
 31
0.0
  0
LINE
  5
A6
330
A
100
AcDbEntity
  8
TFR-TRI
  6
CONTINUOUS
 62
    30
100
AcDbLine
 10
24.60364341735839
 20
57.97703170776367
 30
0.0
 11
22.48232269287109
 21
60.09835052490235
 31
0.0
  0
LINE
  5
A7
330
A
100
AcDbEntity
  8
TFR-TRI
  6
CONTINUOUS
 62
     2
100
AcDbLine
 10
17.9936351776123
 20
55.6617431640625
 30
0.0
 11
18.52408790588379
 21
55.6617431640625
 31
0.0
  0
LINE
  5
A8
330
A
100
AcDbEntity
  8
TFR-TRI
  6
CONTINUOUS
 62
    30
100
AcDbLine
 10
34.99466323852539
 20
25.55334281921386
 30
0.0
 11
35.02175903320312
 21
25.55334281921386
 31
0.0
  0
LINE
  5
A9
330
A
100
AcDbEntity
  8
TFR-TRI
  6
CONTINUOUS
 62
    30
100
AcDbLine
 10
26.45890617370605
 20
31.97703170776367
 30
0.0
 11
28.58022689819335
 21
34.09835052490234
 31
0.0
  0
LINE
  5
AA
330
A
100
AcDbEntity
  8
TFR-TRI
  6
CONTINUOUS
 62
     2
100
AcDbLine
 10
34.32204055786133
 20
55.6617431640625
 30
0.0
 11
34.34913635253906
 21
55.6617431640625
 31
0.0
  0
LINE
  5
AB
330
A
100
AcDbEntity
  8
TFR-TRI
  6
CONTINUOUS
 62
    30
100
AcDbLine
 10
16.74675941467285
 20
25.44494247436523
 30
0.0
 11
16.71966361999511
 21
25.44494247436523
 31
0.0
  0
LINE
  5
AC
330
A
100
AcDbEntity
  8
TFR-TRI
  6
CONTINUOUS
 62
    30
100
AcDbLine
 10
26.72407150268554
 20
29.11186599731445
 30
0.0
 11
28.84539222717285
 21
31.23318672180175
 31
0.0
  0
LINE
  5
AD
330
A
100
AcDbEntity
  8
TFR-TRI
  6
CONTINUOUS
 62
    30
100
AcDbLine
 10
24.3384780883789
 20
49.911865234375
 30
0.0
 11
22.21715927124023
 21
52.03318786621093
 31
0.0
  0
LINE
  5
AE
330
A
100
AcDbEntity
  8
TFR-TRI
  6
CONTINUOUS
 62
    30
100
AcDbLine
 10
16.31377410888672
 20
17.34491348266601
 30
0.0
 11
16.43877410888672
 21
17.34491348266601
 31
0.0
  0
LINE
  5
AF
330
A
100
AcDbEntity
  8
TFR-TRI
  6
CONTINUOUS
 62
    30
100
AcDbLine
 10
16.95887565612792
 20
25.44494247436523
 30
0.0
 11
34.10367584228515
 21
25.44494247436523
 31
0.0
  0
LINE
  5
B0
330
A
100
AcDbEntity
  8
TFR-TRI
  6
CONTINUOUS
 62
    30
100
AcDbLine
 10
26.72407150268554
 20
36.911865234375
 30
0.0
 11
28.84539222717285
 21
39.03318786621094
 31
0.0
  0
LINE
  5
B1
330
A
100
AcDbEntity
  8
TFR-TRI
  6
CONTINUOUS
 62
    30
100
AcDbLine
 10
34.90627670288086
 20
25.55334281921386
 30
0.0
 11
34.95410919189453
 21
25.55334281921386
 31
0.0
  0
LINE
  5
B2
330
A
100
AcDbEntity
  8
TFR-TRI
  6
CONTINUOUS
 62
     2
100
AcDbLine
 10
35.02175903320312
 20
55.6617431640625
 30
0.0
 11
35.03127670288086
 21
55.6617431640625
 31
0.0
  0
LINE
  5
B3
330
A
100
AcDbEntity
  8
TFR-TRI
  6
CONTINUOUS
 62
    30
100
AcDbLine
 10
26.45890617370605
 20
47.57703018188476
 30
0.0
 11
28.58022689819335
 21
49.6983528137207
 31
0.0
  0
LINE
  5
B4
330
A
100
AcDbEntity
  8
TFR-TRI
  6
CONTINUOUS
 62
    30
100
AcDbLine
 10
16.10844039916992
 20
25.44494247436523
 30
0.0
 11
16.06788635253906
 21
25.44494247436523
 31
0.0
  0
LINE
  5
B5
330
A
100
AcDbEntity
  8
TFR-TRI
  6
CONTINUOUS
 62
    30
100
AcDbLine
 10
26.45890617370605
 20
34.57703018188476
 30
0.0
 11
28.58022689819335
 21
36.6983528137207
 31
0.0
  0
LINE
  5
B6
330
A
100
AcDbEntity
  8
TFR-TRI
  6
CONTINUOUS
 62
     2
100
AcDbLine
 10
72.89311981201172
 20
15.7690258026123
 30
0.0
 11
72.89311981201172
 21
15.74192905426025
 31
0.0
  0
LINE
  5
B7
330
A
100
AcDbEntity
  8
TFR-TRI
  6
CONTINUOUS
 62
    30
100
AcDbLine
 10
43.64311599731445
 20
16.46794891357421
 30
0.0
 11
43.64311599731445
 21
16.45741462707519
 31
0.0
  0
LINE
  5
B8
330
A
100
AcDbEntity
  8
TFR-TRI
  6
CONTINUOUS
 62
     2
100
AcDbLine
 10
72.78471374511719
 20
17.44789886474609
 30
0.0
 11
72.78471374511719
 21
17.45741462707519
 31
0.0
  0
LINE
  5
B9
330
A
100
AcDbEntity
  8
TFR-TRI
  6
CONTINUOUS
 62
    30
100
AcDbLine
 10
34.74877548217773
 20
16.46991348266601
 30
0.0
 11
34.62377548217773
 21
16.46991348266601
 31
0.0
  0
LINE
  5
BA
330
A
100
AcDbEntity
  8
TFR-TRI
  6
CONTINUOUS
 62
    30
100
AcDbLine
 10
34.3062744140625
 20
25.55334281921386
 30
0.0
 11
34.31578826904297
 21
25.55334281921386
 31
0.0
  0
LINE
  5
BB
330
A
100
AcDbEntity
  8
TFR-TRI
  6
CONTINUOUS
 62
    30
100
AcDbLine
 10
26.72407150268554
 20
55.11186599731445
 30
0.0
 11
28.84539222717285
 21
57.23318481445312
 31
0.0
  0
LINE
  5
BC
330
A
100
AcDbEntity
  8
TFR-TRI
  6
CONTINUOUS
 62
    30
100
AcDbLine
 10
42.67631530761718
 20
17.44789886474609
 30
0.0
 11
42.67631530761718
 21
17.45741462707519
 31
0.0
  0
LINE
  5
BD
330
A
100
AcDbEntity
  8
TFR-TRI
  6
CONTINUOUS
 62
    30
100
AcDbLine
 10
17.97407150268554
 20
34.3118667602539
 30
0.0
 11
20.09539222717285
 21
36.43318557739258
 31
0.0
  0
LINE
  5
BE
330
A
100
AcDbEntity
  8
TFR-TRI
  6
CONTINUOUS
 62
    30
100
AcDbLine
 10
16.63127517700195
 20
25.55334281921386
 30
0.0
 11
16.67910957336425
 21
25.55334281921386
 31
0.0
  0
LINE
  5
BF
330
A
100
AcDbEntity
  8
TFR-TRI
  6
CONTINUOUS
 62
    30
100
AcDbLine
 10
24.3384780883789
 20
42.11186599731445
 30
0.0
 11
22.21715927124023
 21
44.23318481445313
 31
0.0
  0
LINE
  5
C0
330
A
100
AcDbEntity
  8
TFR-TRI
  6
CONTINUOUS
 62
    30
100
AcDbLine
 10
17.97407150268554
 20
39.51186752319335
 30
0.0
 11
20.09539222717285
 21
41.63318634033203
 31
0.0
  0
LINE
  5
C1
330
A
100
AcDbEntity
  8
TFR-TRI
  6
CONTINUOUS
 62
    30
100
AcDbLine
 10
34.24073791503906
 20
61.9117431640625
 30
0.0
 11
34.2707405090332
 21
61.9117431640625
 31
0.0
  0
LINE
  5
C2
330
A
100
AcDbEntity
  8
TFR-TRI
  6
CONTINUOUS
 62
    30
100
AcDbLine
 10
24.60364341735839
 20
26.77703094482422
 30
0.0
 11
22.48232269287109
 21
28.89835166931152
 31
0.0
  0
LINE
  5
C3
330
A
100
AcDbEntity
  8
TFR-TRI
  6
CONTINUOUS
 62
    30
100
AcDbLine
 10
42.78471755981445
 20
17.42080307006836
 30
0.0
 11
42.78471755981445
 21
17.3802490234375
 31
0.0
  0
LINE
  5
C4
330
A
100
AcDbEntity
  8
TFR-TRI
  6
CONTINUOUS
 62
    30
100
AcDbLine
 10
35.03127670288086
 20
25.55334281921386
 30
0.0
 11
35.03127670288086
 21
25.44494247436523
 31
0.0
  0
LINE
  5
C5
330
A
100
AcDbEntity
  8
TFR-TRI
  6
CONTINUOUS
 62
    30
100
AcDbLine
 10
42.89311599731445
 20
17.45741462707519
 30
0.0
 11
42.89311599731445
 21
17.44687843322753
 31
0.0
  0
LINE
  5
C6
330
A
100
AcDbEntity
  8
TFR-TRI
  6
CONTINUOUS
 62
    30
100
AcDbLine
 10
34.24073791503906
 20
25.66174125671386
 30
0.0
 11
34.2707405090332
 21
25.66174125671386
 31
0.0
  0
LINE
  5
C7
330
A
100
AcDbEntity
  8
TFR-TRI
  6
CONTINUOUS
 62
    30
100
AcDbLine
 10
33.0884780883789
 20
49.911865234375
 30
0.0
 11
30.96715927124023
 21
52.03318786621093
 31
0.0
  0
LINE
  5
C8
330
A
100
AcDbEntity
  8
TFR-TRI
  6
CONTINUOUS
 62
    30
100
AcDbLine
 10
34.2707405090332
 20
61.9117431640625
 30
0.0
 11
34.28127670288086
 21
61.9117431640625
 31
0.0
  0
LINE
  5
C9
330
A
100
AcDbEntity
  8
TFR-TRI
  6
CONTINUOUS
 62
    30
100
AcDbLine
 10
42.78471755981445
 20
15.85741424560547
 30
0.0
 11
42.78471755981445
 21
15.80957889556884
 31
0.0
  0
LINE
  5
CA
330
A
100
AcDbEntity
  8
TFR-TRI
  6
CONTINUOUS
 62
    30
100
AcDbLine
 10
42.67631530761718
 20
15.85741424560547
 30
0.0
 11
42.67631530761718
 21
17.33241462707519
 31
0.0
  0
LINE
  5
CB
330
A
100
AcDbEntity
  8
TFR-TRI
  6
CONTINUOUS
 62
    30
100
AcDbLine
 10
33.35364532470703
 20
39.77703094482421
 30
0.0
 11
31.23232269287109
 21
41.89834976196289
 31
0.0
  0
LINE
  5
CC
330
A
100
AcDbEntity
  8
TFR-TRI
  6
CONTINUOUS
 62
     2
100
AcDbLine
 10
16.15627479553222
 20
55.55334091186523
 30
0.0
 11
16.62502479553222
 21
55.55334091186523
 31
0.0
  0
LINE
  5
CD
330
A
100
AcDbEntity
  8
TFR-TRI
  6
CONTINUOUS
 62
    30
100
AcDbLine
 10
17.70890617370605
 20
42.37702941894531
 30
0.0
 11
19.83022689819335
 21
44.49835205078125
 31
0.0
  0
LINE
  5
CE
330
A
100
AcDbEntity
  8
TFR-TRI
  6
CONTINUOUS
 62
    30
100
AcDbLine
 10
79.14311981201172
 20
16.49795150756836
 30
0.0
 11
79.14311981201172
 21
16.46794891357421
 31
0.0
  0
LINE
  5
CF
330
A
100
AcDbEntity
  8
TFR-TRI
  6
CONTINUOUS
 62
    30
100
AcDbLine
 10
26.72407150268554
 20
44.71186447143554
 30
0.0
 11
28.84539222717285
 21
46.83318710327148
 31
0.0
  0
LINE
  5
D0
330
A
100
AcDbEntity
  8
TFR-TRI
  6
CONTINUOUS
 62
     2
100
AcDbLine
 10
34.90627670288086
 20
55.55334091186523
 30
0.0
 11
34.90627670288086
 21
55.6617431640625
 31
0.0
  0
LINE
  5
D1
330
A
100
AcDbEntity
  8
TFR-TRI
  6
CONTINUOUS
 62
     2
100
AcDbLine
 10
72.29422760009765
 20
15.73241424560547
 30
0.0
 11
72.28471374511719
 21
15.73241424560547
 31
0.0
  0
LINE
  5
D2
330
A
100
AcDbEntity
  8
TFR-TRI
  6
CONTINUOUS
 62
    30
100
AcDbLine
 10
34.99466323852539
 20
25.44494247436523
 30
0.0
 11
34.95410919189453
 21
25.44494247436523
 31
0.0
  0
LINE
  5
D3
330
A
100
AcDbEntity
  8
TFR-TRI
  6
CONTINUOUS
 62
    30
100
AcDbLine
 10
33.0884780883789
 20
31.71186637878418
 30
0.0
 11
30.96715927124023
 21
33.83318710327148
 31
0.0
  0
LINE
  5
D4
330
A
100
AcDbEntity
  8
TFR-TRI
  6
CONTINUOUS
 62
    30
100
AcDbLine
 10
24.60364341735839
 20
55.37702941894531
 30
0.0
 11
22.48232269287109
 21
57.49835205078125
 31
0.0
  0
LINE
  5
D5
330
A
100
AcDbEntity
  8
TFR-TRI
  6
CONTINUOUS
 62
    30
100
AcDbLine
 10
34.74877548217773
 20
17.09491348266601
 30
0.0
 11
34.62377548217773
 21
17.09491348266601
 31
0.0
  0
LINE
  5
D6
330
A
100
AcDbEntity
  8
TFR-TRI
  6
CONTINUOUS
 62
    30
100
AcDbLine
 10
26.45890617370605
 20
29.37703132629394
 30
0.0
 11
28.58022689819335
 21
31.49835205078125
 31
0.0
  0
LINE
  5
D7
330
A
100
AcDbEntity
  8
TFR-TRI
  6
CONTINUOUS
 62
     2
100
AcDbLine
 10
34.31252670288086
 20
55.55334091186523
 30
0.0
 11
34.30447769165039
 21
55.55334091186523
 31
0.0
  0
LINE
  5
D8
330
A
100
AcDbEntity
  8
TFR-TRI
  6
CONTINUOUS
 62
     2
100
AcDbLine
 10
34.95410919189453
 20
55.6617431640625
 30
0.0
 11
34.99466323852539
 21
55.6617431640625
 31
0.0
  0
LINE
  5
D9
330
A
100
AcDbEntity
  8
TFR-TRI
  6
CONTINUOUS
 62
    30
100
AcDbLine
 10
34.10367584228515
 20
25.5303783416748
 30
0.0
 11
34.10367584228515
 21
25.48547744750976
 31
0.0
  0
LINE
  5
DA
330
A
100
AcDbEntity
  8
TFR-TRI
  6
CONTINUOUS
 62
    30
100
AcDbLine
 10
34.10367584228515
 20
17.45741462707519
 30
0.0
 11
34.10367584228515
 21
17.44687843322753
 31
0.0
  0
LINE
  5
DB
330
A
100
AcDbEntity
  8
TFR-TRI
  6
CONTINUOUS
 62
     2
100
AcDbLine
 10
72.89311981201172
 20
17.3802490234375
 30
0.0
 11
72.89311981201172
 21
17.33241462707519
 31
0.0
  0
LINE
  5
DC
330
A
100
AcDbEntity
  8
TFR-TRI
  6
CONTINUOUS
 62
    30
100
AcDbLine
 10
24.3384780883789
 20
47.3118667602539
 30
0.0
 11
22.21715927124023
 21
49.43318557739257
 31
0.0
  0
LINE
  5
DD
330
A
100
AcDbEntity
  8
TFR-TRI
  6
CONTINUOUS
 62
     2
100
AcDbLine
 10
16.75002479553222
 20
55.6617431640625
 30
0.0
 11
16.75002479553222
 21
55.55334091186523
 31
0.0
  0
LINE
  5
DE
330
A
100
AcDbEntity
  8
TFR-TRI
  6
CONTINUOUS
 62
    30
100
AcDbLine
 10
34.34288787841797
 20
25.44494247436523
 30
0.0
 11
34.31578826904297
 21
25.44494247436523
 31
0.0
  0
LINE
  5
DF
330
A
100
AcDbEntity
  8
TFR-TRI
  6
CONTINUOUS
 62
     2
100
AcDbLine
 10
72.40971374511719
 20
15.73241424560547
 30
0.0
 11
72.36187744140625
 21
15.73241424560547
 31
0.0
  0
LINE
  5
E0
330
A
100
AcDbEntity
  8
TFR-TRI
  6
CONTINUOUS
 62
    30
100
AcDbLine
 10
34.34288787841797
 20
25.55334281921386
 30
0.0
 11
34.38343811035156
 21
25.55334281921386
 31
0.0
  0
LINE
  5
E1
330
A
100
AcDbEntity
  8
TFR-TRI
  6
CONTINUOUS
 62
     2
100
AcDbLine
 10
28.56922721862792
 20
54.88744354248047
 30
0.0
 11
28.85530662536621
 21
54.88744354248047
 31
0.0
  0
LINE
  5
E2
330
A
100
AcDbEntity
  8
TFR-TRI
  6
CONTINUOUS
 62
     2
100
AcDbLine
 10
72.36187744140625
 20
15.8408145904541
 30
0.0
 11
72.40971374511719
 21
15.8408145904541
 31
0.0
  0
LINE
  5
E3
330
A
100
AcDbEntity
  8
TFR-TRI
  6
CONTINUOUS
 62
    30
100
AcDbLine
 10
16.95887565612792
 20
25.66174125671386
 30
0.0
 11
16.91967582702636
 21
25.66174125671386
 31
0.0
  0
LINE
  5
E4
330
A
100
AcDbEntity
  8
TFR-TRI
  6
CONTINUOUS
 62
    30
100
AcDbLine
 10
16.95887565612792
 20
25.58334159851074
 30
0.0
 11
34.10367584228515
 21
25.58334159851074
 31
0.0
  0
LINE
  5
E5
330
A
100
AcDbEntity
  8
TFR-TRI
  6
CONTINUOUS
 62
    30
100
AcDbLine
 10
42.78471755981445
 20
15.7690258026123
 30
0.0
 11
42.78471755981445
 21
15.74192905426025
 31
0.0
  0
LINE
  5
E6
330
A
100
AcDbEntity
  8
TFR-TRI
  6
CONTINUOUS
 62
     2
100
AcDbLine
 10
72.89311981201172
 20
17.33241462707519
 30
0.0
 11
72.78471374511719
 21
17.33241462707519
 31
0.0
  0
LINE
  5
E7
330
A
100
AcDbEntity
  8
TFR-TRI
  6
CONTINUOUS
 62
     2
100
AcDbLine
 10
72.78471374511719
 20
15.74192905426025
 30
0.0
 11
72.78471374511719
 21
15.7690258026123
 31
0.0
  0
LINE
  5
E8
330
A
100
AcDbEntity
  8
TFR-TRI
  6
CONTINUOUS
 62
    30
100
AcDbLine
 10
26.45890617370605
 20
26.77703094482422
 30
0.0
 11
28.58022689819335
 21
28.89835166931152
 31
0.0
  0
LINE
  5
E9
330
A
100
AcDbEntity
  8
TFR-TRI
  6
CONTINUOUS
 62
    30
100
AcDbLine
 10
16.86671066284179
 20
61.9117431640625
 30
0.0
 11
16.82181167602539
 21
61.9117431640625
 31
0.0
  0
LINE
  5
EA
330
A
100
AcDbEntity
  8
TFR-TRI
  6
CONTINUOUS
 62
    30
100
AcDbLine
 10
24.3384780883789
 20
34.3118667602539
 30
0.0
 11
22.21715927124023
 21
36.43318557739258
 31
0.0
  0
LINE
  5
EB
330
A
100
AcDbEntity
  8
TFR-TRI
  6
CONTINUOUS
 62
    30
100
AcDbLine
 10
26.72407150268554
 20
52.51186752319336
 30
0.0
 11
28.84539222717285
 21
54.63318634033203
 31
0.0
  0
LINE
  5
EC
330
A
100
AcDbEntity
  8
TFR-TRI
  6
CONTINUOUS
 62
    30
100
AcDbLine
 10
17.70890617370605
 20
26.77703094482422
 30
0.0
 11
19.83022689819335
 21
28.89835166931152
 31
0.0
  0
LINE
  5
ED
330
A
100
AcDbEntity
  8
TFR-TRI
  6
CONTINUOUS
 62
    30
100
AcDbLine
 10
16.03127479553222
 20
25.55334281921386
 30
0.0
 11
16.04079055786132
 21
25.55334281921386
 31
0.0
  0
LINE
  5
EE
330
A
100
AcDbEntity
  8
TFR-TRI
  6
CONTINUOUS
 62
    30
100
AcDbLine
 10
16.95887565612792
 20
25.55334281921386
 30
0.0
 11
16.75627517700195
 21
25.55334281921386
 31
0.0
  0
LINE
  5
EF
330
A
100
AcDbEntity
  8
TFR-TRI
  6
CONTINUOUS
 62
    30
100
AcDbLine
 10
17.97407150268554
 20
52.51186752319336
 30
0.0
 11
20.09539222717285
 21
54.63318634033203
 31
0.0
  0
LINE
  5
F0
330
A
100
AcDbEntity
  8
TFR-TRI
  6
CONTINUOUS
 62
    30
100
AcDbLine
 10
17.97407150268554
 20
36.911865234375
 30
0.0
 11
20.09539222717285
 21
39.03318786621094
 31
0.0
  0
LINE
  5
F1
330
A
100
AcDbEntity
  8
TFR-TRI
  6
CONTINUOUS
 62
     2
100
AcDbLine
 10
34.28127288818359
 20
55.6617431640625
 30
0.0
 11
34.30447769165039
 21
55.6617431640625
 31
0.0
  0
LINE
  5
F2
330
A
100
AcDbEntity
  8
TFR-TRI
  6
CONTINUOUS
 62
    30
100
AcDbLine
 10
42.78471755981445
 20
17.33241462707519
 30
0.0
 11
42.67631530761718
 21
17.33241462707519
 31
0.0
  0
LINE
  5
F3
330
A
100
AcDbEntity
  8
TFR-TRI
  6
CONTINUOUS
 62
    30
100
AcDbLine
 10
16.10844039916992
 20
25.55334281921386
 30
0.0
 11
16.15627479553222
 21
25.55334281921386
 31
0.0
  0
LINE
  5
F4
330
A
100
AcDbEntity
  8
TFR-TRI
  6
CONTINUOUS
 62
     2
100
AcDbLine
 10
72.78471374511719
 20
15.85741424560547
 30
0.0
 11
72.89311981201172
 21
15.85741424560547
 31
0.0
  0
LINE
  5
F5
330
A
100
AcDbEntity
  8
TFR-TRI
  6
CONTINUOUS
 62
    30
100
AcDbLine
 10
34.90627670288086
 20
17.45741462707519
 30
0.0
 11
34.4312744140625
 21
17.45741462707519
 31
0.0
  0
LINE
  5
F6
330
A
100
AcDbEntity
  8
TFR-TRI
  6
CONTINUOUS
 62
    30
100
AcDbLine
 10
33.0884780883789
 20
47.3118667602539
 30
0.0
 11
30.96715927124023
 21
49.43318557739257
 31
0.0
  0
LINE
  5
F7
330
A
100
AcDbEntity
  8
TFR-TRI
  6
CONTINUOUS
 62
    30
100
AcDbLine
 10
34.14287567138671
 20
61.9117431640625
 30
0.0
 11
34.19583892822265
 21
61.9117431640625
 31
0.0
  0
LINE
  5
F8
330
A
100
AcDbEntity
  8
TFR-TRI
  6
CONTINUOUS
 62
    30
100
AcDbLine
 10
17.97407150268554
 20
49.911865234375
 30
0.0
 11
20.09539222717285
 21
52.03318786621093
 31
0.0
  0
LINE
  5
F9
330
A
100
AcDbEntity
  8
TFR-TRI
  6
CONTINUOUS
 62
    30
100
AcDbLine
 10
43.64311599731445
 20
16.62581443786621
 30
0.0
 11
43.64311599731445
 21
16.5958137512207
 31
0.0
  0
LINE
  5
FA
330
A
100
AcDbEntity
  8
TFR-TRI
  6
CONTINUOUS
 62
    30
100
AcDbLine
 10
16.82181167602539
 20
61.9117431640625
 30
0.0
 11
16.79181098937988
 21
61.9117431640625
 31
0.0
  0
LINE
  5
FB
330
A
100
AcDbEntity
  8
TFR-TRI
  6
CONTINUOUS
 62
    30
100
AcDbLine
 10
16.31377410888672
 20
16.71991348266601
 30
0.0
 11
16.43877410888672
 21
16.71991348266601
 31
0.0
  0
LINE
  5
FC
330
A
100
AcDbEntity
  8
TFR-TRI
  6
CONTINUOUS
 62
    30
100
AcDbLine
 10
34.10367584228515
 20
17.31901359558105
 30
0.0
 11
34.3062744140625
 21
17.31901359558105
 31
0.0
  0
LINE
  5
FD
330
A
100
AcDbEntity
  8
TFR-TRI
  6
CONTINUOUS
 62
     2
100
AcDbLine
 10
16.67286109924316
 20
55.55334091186523
 30
0.0
 11
16.62502479553222
 21
55.55334091186523
 31
0.0
  0
LINE
  5
FE
330
A
100
AcDbEntity
  8
TFR-TRI
  6
CONTINUOUS
 62
    30
100
AcDbLine
 10
33.35364532470703
 20
37.17703247070312
 30
0.0
 11
31.23232269287109
 21
39.2983512878418
 31
0.0
  0
LINE
  5
FF
330
A
100
AcDbEntity
  8
TFR-TRI
  6
CONTINUOUS
 62
    30
100
AcDbLine
 10
34.10367584228515
 20
17.45741462707519
 30
0.0
 11
34.14287567138671
 21
17.45741462707519
 31
0.0
  0
LINE
  5
100
330
A
100
AcDbEntity
  8
TFR-TRI
  6
CONTINUOUS
 62
     2
100
AcDbLine
 10
16.04079055786132
 20
55.55334091186523
 30
0.0
 11
16.03127479553222
 21
55.55334091186523
 31
0.0
  0
LINE
  5
101
330
A
100
AcDbEntity
  8
TFR-TRI
  6
CONTINUOUS
 62
    30
100
AcDbLine
 10
34.74877548217773
 20
17.34491348266601
 30
0.0
 11
34.62377548217773
 21
17.34491348266601
 31
0.0
  0
LINE
  5
102
330
A
100
AcDbEntity
  8
TFR-TRI
  6
CONTINUOUS
 62
    30
100
AcDbLine
 10
79.14311981201172
 20
17.41687774658203
 30
0.0
 11
79.14311981201172
 21
17.37197685241699
 31
0.0
  0
LINE
  5
103
330
A
100
AcDbEntity
  8
TFR-TRI
  6
CONTINUOUS
 62
    30
100
AcDbLine
 10
26.72407150268554
 20
42.11186599731445
 30
0.0
 11
28.84539222717285
 21
44.23318481445313
 31
0.0
  0
LINE
  5
104
330
A
100
AcDbEntity
  8
TFR-TRI
  6
CONTINUOUS
 62
    30
100
AcDbLine
 10
16.95887565612792
 20
17.41687774658203
 30
0.0
 11
16.95887565612792
 21
17.37197685241699
 31
0.0
  0
LINE
  5
105
330
A
100
AcDbEntity
  8
TFR-TRI
  6
CONTINUOUS
 62
    30
100
AcDbLine
 10
34.74877548217773
 20
16.09491348266601
 30
0.0
 11
34.62377548217773
 21
16.09491348266601
 31
0.0
  0
LINE
  5
106
330
A
100
AcDbEntity
  8
TFR-TRI
  6
CONTINUOUS
 62
    30
100
AcDbLine
 10
24.60364341735839
 20
34.57703018188476
 30
0.0
 11
22.48232269287109
 21
36.6983528137207
 31
0.0
  0
LINE
  5
107
330
A
100
AcDbEntity
  8
TFR-TRI
  6
CONTINUOUS
 62
    30
100
AcDbLine
 10
33.0884780883789
 20
29.11186599731445
 30
0.0
 11
30.96715927124023
 21
31.23318672180175
 31
0.0
  0
LINE
  5
108
330
A
100
AcDbEntity
  8
TFR-TRI
  6
CONTINUOUS
 62
     2
100
AcDbLine
 10
30.95693206787109
 20
54.88744354248047
 30
0.0
 11
31.24300956726074
 21
54.88744354248047
 31
0.0
  0
LINE
  5
109
330
A
100
AcDbEntity
  8
TFR-TRI
  6
CONTINUOUS
 62
    30
100
AcDbLine
 10
43.64311599731445
 20
16.5958137512207
 30
0.0
 11
43.64311599731445
 21
16.54285049438476
 31
0.0
  0
LINE
  5
10A
330
A
100
AcDbEntity
  8
TFR-TRI
  6
CONTINUOUS
 62
     2
100
AcDbLine
 10
35.02175903320312
 20
55.55334091186523
 30
0.0
 11
34.99466323852539
 21
55.55334091186523
 31
0.0
  0
LINE
  5
10B
330
A
100
AcDbEntity
  8
TFR-TRI
  6
CONTINUOUS
 62
    30
100
AcDbLine
 10
43.64311599731445
 20
16.5958137512207
 30
0.0
 11
72.7841796875
 21
16.5958137512207
 31
0.0
  0
LINE
  5
10C
330
A
100
AcDbEntity
  8
TFR-TRI
  6
CONTINUOUS
 62
    30
100
AcDbLine
 10
16.95887565612792
 20
17.44687843322753
 30
0.0
 11
16.95887565612792
 21
17.41687774658203
 31
0.0
  0
LINE
  5
10D
330
A
100
AcDbEntity
  8
TFR-TRI
  6
CONTINUOUS
 62
    30
100
AcDbLine
 10
16.95887565612792
 20
25.44494247436523
 30
0.0
 11
16.75627517700195
 21
25.44494247436523
 31
0.0
  0
LINE
  5
10E
330
A
100
AcDbEntity
  8
TFR-TRI
  6
CONTINUOUS
 62
    30
100
AcDbLine
 10
79.14311981201172
 20
17.37197685241699
 30
0.0
 11
79.14311981201172
 21
17.31901359558105
 31
0.0
  0
LINE
  5
10F
330
A
100
AcDbEntity
  8
TFR-TRI
  6
CONTINUOUS
 62
    30
100
AcDbLine
 10
24.60364341735839
 20
52.77703094482422
 30
0.0
 11
22.48232269287109
 21
54.89834976196289
 31
0.0
  0
LINE
  5
110
330
A
100
AcDbEntity
  8
TFR-TRI
  6
CONTINUOUS
 62
     2
100
AcDbLine
 10
34.34913635253906
 20
55.6617431640625
 30
0.0
 11
34.38969039916992
 21
55.6617431640625
 31
0.0
  0
LINE
  5
111
330
A
100
AcDbEntity
  8
TFR-TRI
  6
CONTINUOUS
 62
    30
100
AcDbLine
 10
16.95887565612792
 20
25.48547744750976
 30
0.0
 11
16.95887565612792
 21
25.45547676086425
 31
0.0
  0
LINE
  5
112
330
A
100
AcDbEntity
  8
TFR-TRI
  6
CONTINUOUS
 62
    30
100
AcDbLine
 10
34.90627670288086
 20
25.44494247436523
 30
0.0
 11
34.4312744140625
 21
25.44494247436523
 31
0.0
  0
LINE
  5
113
330
A
100
AcDbEntity
  8
TFR-TRI
  6
CONTINUOUS
 62
     2
100
AcDbLine
 10
16.71341323852539
 20
55.6617431640625
 30
0.0
 11
16.74050903320312
 21
55.6617431640625
 31
0.0
  0
LINE
  5
114
330
A
100
AcDbEntity
  8
TFR-TRI
  6
CONTINUOUS
 62
    30
100
AcDbLine
 10
16.04079055786132
 20
25.55334281921386
 30
0.0
 11
16.06788635253906
 21
25.55334281921386
 31
0.0
  0
LINE
  5
115
330
A
100
AcDbEntity
  8
TFR-TRI
  6
CONTINUOUS
 62
     2
100
AcDbLine
 10
72.72471618652343
 20
15.8408145904541
 30
0.0
 11
72.40971374511719
 21
15.8408145904541
 31
0.0
  0
LINE
  5
116
330
A
100
AcDbEntity
  8
TFR-TRI
  6
CONTINUOUS
 62
    30
100
AcDbLine
 10
17.70890617370605
 20
34.57703018188476
 30
0.0
 11
19.83022689819335
 21
36.6983528137207
 31
0.0
  0
LINE
  5
117
330
A
100
AcDbEntity
  8
TFR-TRI
  6
CONTINUOUS
 62
    30
100
AcDbLine
 10
16.95887565612792
 20
17.31901359558105
 30
0.0
 11
16.75627517700195
 21
17.31901359558105
 31
0.0
  0
LINE
  5
118
330
A
100
AcDbEntity
  8
TFR-TRI
  6
CONTINUOUS
 62
    30
100
AcDbLine
 10
24.60364341735839
 20
39.77703094482421
 30
0.0
 11
22.48232269287109
 21
41.89834976196289
 31
0.0
  0
LINE
  5
119
330
A
100
AcDbEntity
  8
TFR-TRI
  6
CONTINUOUS
 62
     2
100
AcDbLine
 10
72.89311981201172
 20
15.80957889556884
 30
0.0
 11
72.89311981201172
 21
15.7690258026123
 31
0.0
  0
LINE
  5
11A
330
A
100
AcDbEntity
  8
TFR-TRI
  6
CONTINUOUS
 62
     2
100
AcDbLine
 10
72.28471374511719
 20
15.8408145904541
 30
0.0
 11
72.29422760009765
 21
15.8408145904541
 31
0.0
  0
LINE
  5
11B
330
A
100
AcDbEntity
  8
TFR-TRI
  6
CONTINUOUS
 62
     2
100
AcDbLine
 10
16.15627479553222
 20
55.6617431640625
 30
0.0
 11
16.15627479553222
 21
55.55334091186523
 31
0.0
  0
LINE
  5
11C
330
A
100
AcDbEntity
  8
TFR-TRI
  6
CONTINUOUS
 62
    30
100
AcDbLine
 10
16.15627479553222
 20
15.73241424560547
 30
0.0
 11
34.90627670288086
 21
15.73241424560547
 31
0.0
  0
LINE
  5
11D
330
A
100
AcDbEntity
  8
TFR-TRI
  6
CONTINUOUS
 62
    30
100
AcDbLine
 10
33.0884780883789
 20
55.11186599731445
 30
0.0
 11
30.96715927124023
 21
57.23318481445312
 31
0.0
  0
LINE
  5
11E
330
A
100
AcDbEntity
  8
TFR-TRI
  6
CONTINUOUS
 62
    30
100
AcDbLine
 10
26.45890617370605
 20
37.17703247070312
 30
0.0
 11
28.58022689819335
 21
39.2983512878418
 31
0.0
  0
LINE
  5
11F
330
A
100
AcDbEntity
  8
TFR-TRI
  6
CONTINUOUS
 62
     2
100
AcDbLine
 10
23.95718193054199
 20
55.49334335327149
 30
0.0
 11
24.48736953735351
 21
55.49334335327149
 31
0.0
  0
LINE
  5
120
330
A
100
AcDbEntity
  8
TFR-TRI
  6
CONTINUOUS
 62
    30
100
AcDbLine
 10
72.892822265625
 20
17.45741462707519
 30
0.0
 11
79.14311981201172
 21
17.45741462707519
 31
0.0
  0
LINE
  5
121
330
A
100
AcDbEntity
  8
TFR-TRI
  6
CONTINUOUS
 62
     2
100
AcDbLine
 10
72.78471374511719
 20
17.45741462707519
 30
0.0
 11
72.89311981201172
 21
17.45741462707519
 31
0.0
  0
LINE
  5
122
330
A
100
AcDbEntity
  8
TFR-TRI
  6
CONTINUOUS
 62
    30
100
AcDbLine
 10
34.14287567138671
 20
25.66174125671386
 30
0.0
 11
34.19583892822265
 21
25.66174125671386
 31
0.0
  0
LINE
  5
123
330
A
100
AcDbEntity
  8
TFR-TRI
  6
CONTINUOUS
 62
    30
100
AcDbLine
 10
42.67631530761718
 20
17.33241462707519
 30
0.0
 11
42.67631530761718
 21
17.3802490234375
 31
0.0
  0
LINE
  5
124
330
A
100
AcDbEntity
  8
TFR-TRI
  6
CONTINUOUS
 62
     2
100
AcDbLine
 10
72.89311981201172
 20
15.74192905426025
 30
0.0
 11
72.89311981201172
 21
15.73241424560547
 31
0.0
  0
LINE
  5
125
330
A
100
AcDbEntity
  8
TFR-TRI
  6
CONTINUOUS
 62
    30
100
AcDbLine
 10
16.31377410888672
 20
17.09491348266601
 30
0.0
 11
16.43877410888672
 21
17.09491348266601
 31
0.0
  0
LINE
  5
126
330
A
100
AcDbEntity
  8
TFR-TRI
  6
CONTINUOUS
 62
    30
100
AcDbLine
 10
35.02175903320312
 20
25.55334281921386
 30
0.0
 11
35.03127670288086
 21
25.55334281921386
 31
0.0
  0
LINE
  5
127
330
A
100
AcDbEntity
  8
TFR-TRI
  6
CONTINUOUS
 62
    30
100
AcDbLine
 10
16.75627517700195
 20
17.31901359558105
 30
0.0
 11
16.75627517700195
 21
17.33241462707519
 31
0.0
  0
LINE
  5
128
330
A
100
AcDbEntity
  8
TFR-TRI
  6
CONTINUOUS
 62
    30
100
AcDbLine
 10
33.35364532470703
 20
57.97703170776367
 30
0.0
 11
31.23232269287109
 21
60.09835052490235
 31
0.0
  0
LINE
  5
129
330
A
100
AcDbEntity
  8
TFR-TRI
  6
CONTINUOUS
 62
    30
100
AcDbLine
 10
43.64311599731445
 20
16.54285049438476
 30
0.0
 11
43.64311599731445
 21
16.49795150756836
 31
0.0
  0
LINE
  5
12A
330
A
100
AcDbEntity
  8
TFR-TRI
  6
CONTINUOUS
 62
    30
100
AcDbLine
 10
24.3384780883789
 20
31.71186637878418
 30
0.0
 11
22.21715927124023
 21
33.83318710327148
 31
0.0
  0
LINE
  5
12B
330
A
100
AcDbEntity
  8
TFR-TRI
  6
CONTINUOUS
 62
    30
100
AcDbLine
 10
42.81471633911133
 20
17.34901428222656
 30
0.0
 11
42.89311599731445
 21
17.34901428222656
 31
0.0
  0
LINE
  5
12C
330
A
100
AcDbEntity
  8
TFR-TRI
  6
CONTINUOUS
 62
    30
100
AcDbLine
 10
26.72407150268554
 20
49.911865234375
 30
0.0
 11
28.84539222717285
 21
52.03318786621093
 31
0.0
  0
LINE
  5
12D
330
A
100
AcDbEntity
  8
TFR-TRI
  6
CONTINUOUS
 62
    30
100
AcDbLine
 10
33.35364532470703
 20
52.77703094482422
 30
0.0
 11
31.23232269287109
 21
54.89834976196289
 31
0.0
  0
LINE
  5
12E
330
A
100
AcDbEntity
  8
TFR-TRI
  6
CONTINUOUS
 62
    30
100
AcDbLine
 10
16.75627517700195
 20
25.55334281921386
 30
0.0
 11
16.75627517700195
 21
25.44494247436523
 31
0.0
  0
LINE
  5
12F
330
A
100
AcDbEntity
  8
TFR-TRI
  6
CONTINUOUS
 62
    30
100
AcDbLine
 10
17.70890617370605
 20
55.37702941894531
 30
0.0
 11
19.83022689819335
 21
57.49835205078125
 31
0.0
  0
LINE
  5
130
330
A
100
AcDbEntity
  8
TFR-TRI
  6
CONTINUOUS
 62
    30
100
AcDbLine
 10
34.10367584228515
 20
17.44687843322753
 30
0.0
 11
34.10367584228515
 21
17.41687774658203
 31
0.0
  0
LINE
  5
131
330
A
100
AcDbEntity
  8
TFR-TRI
  6
CONTINUOUS
 62
     2
100
AcDbLine
 10
26.74358749389648
 20
55.6617431640625
 30
0.0
 11
27.273775100708
 21
55.6617431640625
 31
0.0
  0
LINE
  5
132
330
A
100
AcDbEntity
  8
TFR-TRI
  6
CONTINUOUS
 62
    30
100
AcDbLine
 10
42.89311599731445
 20
17.31901359558105
 30
0.0
 11
72.78463745117187
 21
17.31901359558105
 31
0.0
  0
LINE
  5
133
330
A
100
AcDbEntity
  8
TFR-TRI
  6
CONTINUOUS
 62
    30
100
AcDbLine
 10
33.0884780883789
 20
44.71186447143554
 30
0.0
 11
30.96715927124023
 21
46.83318710327148
 31
0.0
  0
LINE
  5
134
330
A
100
AcDbEntity
  8
TFR-TRI
  6
CONTINUOUS
 62
    30
100
AcDbLine
 10
34.28127670288086
 20
25.66174125671386
 30
0.0
 11
34.28127670288086
 21
61.9117431640625
 31
0.0
  0
LINE
  5
135
330
A
100
AcDbEntity
  8
TFR-TRI
  6
CONTINUOUS
 62
    30
100
AcDbLine
 10
35.03127670288086
 20
25.44494247436523
 30
0.0
 11
35.02175903320312
 21
25.44494247436523
 31
0.0
  0
LINE
  5
136
330
A
100
AcDbEntity
  8
TFR-TRI
  6
CONTINUOUS
 62
     2
100
AcDbLine
 10
16.15627479553222
 20
55.55334091186523
 30
0.0
 11
16.10844039916992
 21
55.55334091186523
 31
0.0
  0
LINE
  5
137
330
A
100
AcDbEntity
  8
TFR-TRI
  6
CONTINUOUS
 62
    30
100
AcDbLine
 10
33.35364532470703
 20
34.57703018188476
 30
0.0
 11
31.23232269287109
 21
36.6983528137207
 31
0.0
  0
LINE
  5
138
330
A
100
AcDbEntity
  8
TFR-TRI
  6
CONTINUOUS
 62
    30
100
AcDbLine
 10
34.10367584228515
 20
17.41687774658203
 30
0.0
 11
34.10367584228515
 21
17.37197685241699
 31
0.0
  0
LINE
  5
139
330
A
100
AcDbEntity
  8
TFR-TRI
  6
CONTINUOUS
 62
     2
100
AcDbLine
 10
35.03127670288086
 20
55.6617431640625
 30
0.0
 11
35.03127670288086
 21
55.55334091186523
 31
0.0
  0
LINE
  5
13A
330
A
100
AcDbEntity
  8
TFR-TRI
  6
CONTINUOUS
 62
    30
100
AcDbLine
 10
26.72407150268554
 20
39.51186752319335
 30
0.0
 11
28.84539222717285
 21
41.63318634033203
 31
0.0
  0
LINE
  5
13B
330
A
100
AcDbEntity
  8
TFR-TRI
  6
CONTINUOUS
 62
    30
100
AcDbLine
 10
33.35364532470703
 20
42.37702941894531
 30
0.0
 11
31.23232269287109
 21
44.49835205078125
 31
0.0
  0
LINE
  5
13C
330
A
100
AcDbEntity
  8
TFR-TRI
  6
CONTINUOUS
 62
    30
100
AcDbLine
 10
34.10367584228515
 20
17.34901428222656
 30
0.0
 11
34.14287567138671
 21
17.34901428222656
 31
0.0
  0
LINE
  5
13D
330
A
100
AcDbEntity
  8
TFR-TRI
  6
CONTINUOUS
 62
    30
100
AcDbLine
 10
33.0884780883789
 20
26.51186561584472
 30
0.0
 11
30.96715927124023
 21
28.63318634033203
 31
0.0
  0
LINE
  5
13E
330
A
100
AcDbEntity
  8
TFR-TRI
  6
CONTINUOUS
 62
    30
100
AcDbLine
 10
79.14311981201172
 20
17.45741462707519
 30
0.0
 11
79.14311981201172
 21
17.44687843322753
 31
0.0
  0
LINE
  5
13F
330
A
100
AcDbEntity
  8
TFR-TRI
  6
CONTINUOUS
 62
    30
100
AcDbLine
 10
34.74877548217773
 20
16.71991348266601
 30
0.0
 11
34.62377548217773
 21
16.71991348266601
 31
0.0
  0
LINE
  5
140
330
A
100
AcDbEntity
  8
TFR-TRI
  6
CONTINUOUS
 62
    30
100
AcDbLine
 10
26.72407150268554
 20
34.3118667602539
 30
0.0
 11
28.84539222717285
 21
36.43318557739258
 31
0.0
  0
LINE
  5
141
330
A
100
AcDbEntity
  8
TFR-TRI
  6
CONTINUOUS
 62
    30
100
AcDbLine
 10
42.67631530761718
 20
17.3802490234375
 30
0.0
 11
42.67631530761718
 21
17.42080307006836
 31
0.0
  0
LINE
  5
142
330
A
100
AcDbEntity
  8
TFR-TRI
  6
CONTINUOUS
 62
     2
100
AcDbLine
 10
72.78471374511719
 20
17.3802490234375
 30
0.0
 11
72.78471374511719
 21
17.42080307006836
 31
0.0
  0
LINE
  5
143
330
A
100
AcDbEntity
  8
TFR-TRI
  6
CONTINUOUS
 62
    30
100
AcDbLine
 10
16.91967582702636
 20
25.66174125671386
 30
0.0
 11
16.86671066284179
 21
25.66174125671386
 31
0.0
  0
LINE
  5
144
330
A
100
AcDbEntity
  8
TFR-TRI
  6
CONTINUOUS
 62
     2
100
AcDbLine
 10
72.78471374511719
 20
17.33241462707519
 30
0.0
 11
72.78471374511719
 21
17.3802490234375
 31
0.0
  0
LINE
  5
145
330
A
100
AcDbEntity
  8
TFR-TRI
  6
CONTINUOUS
 62
    30
100
AcDbLine
 10
26.45890617370605
 20
57.97703170776367
 30
0.0
 11
28.58022689819335
 21
60.09835052490235
 31
0.0
  0
LINE
  5
146
330
A
100
AcDbEntity
  8
TFR-TRI
  6
CONTINUOUS
 62
    30
100
AcDbLine
 10
42.78471755981445
 20
15.73241424560547
 30
0.0
 11
42.67631530761718
 21
15.73241424560547
 31
0.0
  0
LINE
  5
147
330
A
100
AcDbEntity
  8
TFR-TRI
  6
CONTINUOUS
 62
     2
100
AcDbLine
 10
34.34913635253906
 20
55.55334091186523
 30
0.0
 11
34.32204055786133
 21
55.55334091186523
 31
0.0
  0
LINE
  5
148
330
A
100
AcDbEntity
  8
TFR-TRI
  6
CONTINUOUS
 62
    30
100
AcDbLine
 10
34.38343811035156
 20
25.55334281921386
 30
0.0
 11
34.4312744140625
 21
25.55334281921386
 31
0.0
  0
LINE
  5
149
330
A
100
AcDbEntity
  8
TFR-TRI
  6
CONTINUOUS
 62
    30
100
AcDbLine
 10
24.60364341735839
 20
50.17703247070312
 30
0.0
 11
22.48232269287109
 21
52.2983512878418
 31
0.0
  0
LINE
  5
14A
330
A
100
AcDbEntity
  8
TFR-TRI
  6
CONTINUOUS
 62
     2
100
AcDbLine
 10
34.99466323852539
 20
55.6617431640625
 30
0.0
 11
35.02175903320312
 21
55.6617431640625
 31
0.0
  0
LINE
  5
14B
330
A
100
AcDbEntity
  8
TFR-TRI
  6
CONTINUOUS
 62
    30
100
AcDbLine
 10
34.10367584228515
 20
25.48547744750976
 30
0.0
 11
34.10367584228515
 21
25.45547676086425
 31
0.0
  0
LINE
  5
14C
330
A
100
AcDbEntity
  8
TFR-TRI
  6
CONTINUOUS
 62
    30
100
AcDbLine
 10
17.70890617370605
 20
44.97703170776367
 30
0.0
 11
19.83022689819335
 21
47.09835052490234
 31
0.0
  0
LINE
  5
14D
330
A
100
AcDbEntity
  8
TFR-TRI
  6
CONTINUOUS
 62
    30
100
AcDbLine
 10
42.78471755981445
 20
17.44789886474609
 30
0.0
 11
42.78471755981445
 21
17.42080307006836
 31
0.0
  0
LINE
  5
14E
330
A
100
AcDbEntity
  8
TFR-TRI
  6
CONTINUOUS
 62
     2
100
AcDbLine
 10
17.82522773742675
 20
55.49334335327149
 30
0.0
 11
18.35568046569824
 21
55.49334335327149
 31
0.0
  0
LINE
  5
14F
330
A
100
AcDbEntity
  8
TFR-TRI
  6
CONTINUOUS
 62
    30
100
AcDbLine
 10
17.97407150268554
 20
26.51186561584472
 30
0.0
 11
20.09539222717285
 21
28.63318634033203
 31
0.0
  0
LINE
  5
150
330
A
100
AcDbEntity
  8
TFR-TRI
  6
CONTINUOUS
 62
    30
100
AcDbLine
 10
34.2707405090332
 20
25.66174125671386
 30
0.0
 11
34.28127670288086
 21
25.66174125671386
 31
0.0
  0
LINE
  5
151
330
A
100
AcDbEntity
  8
TFR-TRI
  6
CONTINUOUS
 62
     2
100
AcDbLine
 10
72.36187744140625
 20
15.73241424560547
 30
0.0
 11
72.32132720947266
 21
15.73241424560547
 31
0.0
  0
LINE
  5
152
330
A
100
AcDbEntity
  8
TFR-TRI
  6
CONTINUOUS
 62
    30
100
AcDbLine
 10
17.70890617370605
 20
31.97703170776367
 30
0.0
 11
19.83022689819335
 21
34.09835052490234
 31
0.0
  0
LINE
  5
153
330
A
100
AcDbEntity
  8
TFR-TRI
  6
CONTINUOUS
 62
    30
100
AcDbLine
 10
16.15627479553222
 20
25.44494247436523
 30
0.0
 11
16.63127517700195
 21
25.44494247436523
 31
0.0
  0
LINE
  5
154
330
A
100
AcDbEntity
  8
TFR-TRI
  6
CONTINUOUS
 62
    30
100
AcDbLine
 10
17.97407150268554
 20
31.71186637878418
 30
0.0
 11
20.09539222717285
 21
33.83318710327148
 31
0.0
  0
LINE
  5
155
330
A
100
AcDbEntity
  8
TFR-TRI
  6
CONTINUOUS
 62
    30
100
AcDbLine
 10
16.95887565612792
 20
25.58334159851074
 30
0.0
 11
16.95887565612792
 21
25.66174125671386
 31
0.0
  0
LINE
  5
156
330
A
100
AcDbEntity
  8
TFR-TRI
  6
CONTINUOUS
 62
    30
100
AcDbLine
 10
16.74675941467285
 20
25.55334281921386
 30
0.0
 11
16.75627517700195
 21
25.55334281921386
 31
0.0
  0
LINE
  5
157
330
A
100
AcDbEntity
  8
TFR-TRI
  6
CONTINUOUS
 62
     2
100
AcDbLine
 10
16.78127670288086
 20
55.55334091186523
 30
0.0
 11
16.75807189941406
 21
55.55334091186523
 31
0.0
  0
LINE
  5
158
330
A
100
AcDbEntity
  8
TFR-TRI
  6
CONTINUOUS
 62
     2
100
AcDbLine
 10
72.89311981201172
 20
15.85741424560547
 30
0.0
 11
72.89311981201172
 21
15.80957889556884
 31
0.0
  0
LINE
  5
159
330
A
100
AcDbEntity
  8
TFR-TRI
  6
CONTINUOUS
 62
     2
100
AcDbLine
 10
23.78877449035644
 20
55.6617431640625
 30
0.0
 11
24.31896209716796
 21
55.6617431640625
 31
0.0
  0
LINE
  5
15A
330
A
100
AcDbEntity
  8
TFR-TRI
  6
CONTINUOUS
 62
    30
100
AcDbLine
 10
16.67910957336425
 20
25.55334281921386
 30
0.0
 11
16.71966361999511
 21
25.55334281921386
 31
0.0
  0
LINE
  5
15B
330
A
100
AcDbEntity
  8
TFR-TRI
  6
CONTINUOUS
 62
    30
100
AcDbLine
 10
33.35364532470703
 20
55.37702941894531
 30
0.0
 11
31.23232269287109
 21
57.49835205078125
 31
0.0
  0
LINE
  5
15C
330
A
100
AcDbEntity
  8
TFR-TRI
  6
CONTINUOUS
 62
     2
100
AcDbLine
 10
34.95410919189453
 20
55.55334091186523
 30
0.0
 11
34.90627670288086
 21
55.55334091186523
 31
0.0
  0
LINE
  5
15D
330
A
100
AcDbEntity
  8
TFR-TRI
  6
CONTINUOUS
 62
    30
100
AcDbLine
 10
24.3384780883789
 20
29.11186599731445
 30
0.0
 11
22.21715927124023
 21
31.23318672180175
 31
0.0
  0
LINE
  5
15E
330
A
100
AcDbEntity
  8
TFR-TRI
  6
CONTINUOUS
 62
    30
100
AcDbLine
 10
42.78471755981445
 20
17.33241462707519
 30
0.0
 11
42.78471755981445
 21
15.85741424560547
 31
0.0
  0
LINE
  5
15F
330
A
100
AcDbEntity
  8
TFR-TRI
  6
CONTINUOUS
 62
    30
100
AcDbLine
 10
34.10367584228515
 20
25.55334281921386
 30
0.0
 11
34.3062744140625
 21
25.55334281921386
 31
0.0
  0
LINE
  5
160
330
A
100
AcDbEntity
  8
TFR-TRI
  6
CONTINUOUS
 62
    30
100
AcDbLine
 10
34.31578826904297
 20
25.55334281921386
 30
0.0
 11
34.34288787841797
 21
25.55334281921386
 31
0.0
  0
LINE
  5
161
330
A
100
AcDbEntity
  8
TFR-TRI
  6
CONTINUOUS
 62
    30
100
AcDbLine
 10
42.67631530761718
 20
15.85741424560547
 30
0.0
 11
42.78471755981445
 21
15.85741424560547
 31
0.0
  0
LINE
  5
162
330
A
100
AcDbEntity
  8
TFR-TRI
  6
CONTINUOUS
 62
    30
100
AcDbLine
 10
42.89311599731445
 20
17.37197685241699
 30
0.0
 11
42.89311599731445
 21
17.31901359558105
 31
0.0
  0
LINE
  5
163
330
A
100
AcDbEntity
  8
TFR-TRI
  6
CONTINUOUS
 62
    30
100
AcDbLine
 10
33.35364532470703
 20
50.17703247070312
 30
0.0
 11
31.23232269287109
 21
52.2983512878418
 31
0.0
  0
LINE
  5
164
330
A
100
AcDbEntity
  8
TFR-TRI
  6
CONTINUOUS
 62
    30
100
AcDbLine
 10
34.4312744140625
 20
25.55334281921386
 30
0.0
 11
34.4312744140625
 21
25.44494247436523
 31
0.0
  0
LINE
  5
165
330
A
100
AcDbEntity
  8
TFR-TRI
  6
CONTINUOUS
 62
    30
100
AcDbLine
 10
16.06788635253906
 20
25.44494247436523
 30
0.0
 11
16.04079055786132
 21
25.44494247436523
 31
0.0
  0
LINE
  5
166
330
A
100
AcDbEntity
  8
TFR-TRI
  6
CONTINUOUS
 62
    30
100
AcDbLine
 10
17.70890617370605
 20
52.77703094482422
 30
0.0
 11
19.83022689819335
 21
54.89834976196289
 31
0.0
  0
LINE
  5
167
330
A
100
AcDbEntity
  8
TFR-TRI
  6
CONTINUOUS
 62
    30
100
AcDbLine
 10
79.14311981201172
 20
17.44687843322753
 30
0.0
 11
79.14311981201172
 21
17.41687774658203
 31
0.0
  0
LINE
  5
168
330
A
100
AcDbEntity
  8
TFR-TRI
  6
CONTINUOUS
 62
    30
100
AcDbLine
 10
34.19583892822265
 20
61.9117431640625
 30
0.0
 11
34.24073791503906
 21
61.9117431640625
 31
0.0
  0
LINE
  5
169
330
A
100
AcDbEntity
  8
TFR-TRI
  6
CONTINUOUS
 62
    30
100
AcDbLine
 10
43.64311599731445
 20
16.49795150756836
 30
0.0
 11
43.64311599731445
 21
16.46794891357421
 31
0.0
  0
LINE
  5
16A
330
A
100
AcDbEntity
  8
TFR-TRI
  6
CONTINUOUS
 62
     2
100
AcDbLine
 10
72.28471374511719
 20
15.73241424560547
 30
0.0
 11
72.28471374511719
 21
15.8408145904541
 31
0.0
  0
LINE
  5
16B
330
A
100
AcDbEntity
  8
TFR-TRI
  6
CONTINUOUS
 62
     2
100
AcDbLine
 10
16.75807189941406
 20
55.55334091186523
 30
0.0
 11
16.75002479553222
 21
55.55334091186523
 31
0.0
  0
LINE
  5
16C
330
A
100
AcDbEntity
  8
TFR-TRI
  6
CONTINUOUS
 62
    30
100
AcDbLine
 10
79.14311981201172
 20
16.54285049438476
 30
0.0
 11
79.14311981201172
 21
16.49795150756836
 31
0.0
  0
LINE
  5
16D
330
A
100
AcDbEntity
  8
TFR-TRI
  6
CONTINUOUS
 62
    30
100
AcDbLine
 10
16.79181098937988
 20
61.9117431640625
 30
0.0
 11
16.78127479553222
 21
61.9117431640625
 31
0.0
  0
LINE
  5
16E
330
A
100
AcDbEntity
  8
TFR-TRI
  6
CONTINUOUS
 62
    30
100
AcDbLine
 10
17.97407150268554
 20
44.71186447143554
 30
0.0
 11
20.09539222717285
 21
46.83318710327148
 31
0.0
  0
LINE
  5
16F
330
A
100
AcDbEntity
  8
TFR-TRI
  6
CONTINUOUS
 62
    30
100
AcDbLine
 10
79.14311981201172
 20
16.5958137512207
 30
0.0
 11
79.14311981201172
 21
16.54285049438476
 31
0.0
  0
LINE
  5
170
330
A
100
AcDbEntity
  8
TFR-TRI
  6
CONTINUOUS
 62
    30
100
AcDbLine
 10
26.45890617370605
 20
44.97703170776367
 30
0.0
 11
28.58022689819335
 21
47.09835052490234
 31
0.0
  0
LINE
  5
171
330
A
100
AcDbEntity
  8
TFR-TRI
  6
CONTINUOUS
 62
    30
100
AcDbLine
 10
16.82181167602539
 20
25.66174125671386
 30
0.0
 11
16.79181098937988
 21
25.66174125671386
 31
0.0
  0
LINE
  5
172
330
A
100
AcDbEntity
  8
TFR-TRI
  6
CONTINUOUS
 62
    30
100
AcDbLine
 10
16.95887565612792
 20
17.45741462707519
 30
0.0
 11
16.91967582702636
 21
17.45741462707519
 31
0.0
  0
LINE
  5
173
330
A
100
AcDbEntity
  8
TFR-TRI
  6
CONTINUOUS
 62
     2
100
AcDbLine
 10
34.90627670288086
 20
55.6617431640625
 30
0.0
 11
34.43752670288086
 21
55.6617431640625
 31
0.0
  0
LINE
  5
174
330
A
100
AcDbEntity
  8
TFR-TRI
  6
CONTINUOUS
 62
    30
100
AcDbLine
 10
33.35364532470703
 20
31.97703170776367
 30
0.0
 11
31.23232269287109
 21
34.09835052490234
 31
0.0
  0
LINE
  5
175
330
A
100
AcDbEntity
  8
TFR-TRI
  6
CONTINUOUS
 62
    30
100
AcDbLine
 10
16.95887565612792
 20
17.37197685241699
 30
0.0
 11
16.95887565612792
 21
17.31901359558105
 31
0.0
  0
LINE
  5
176
330
A
100
AcDbEntity
  8
TFR-TRI
  6
CONTINUOUS
 62
    30
100
AcDbLine
 10
34.90627670288086
 20
25.55334281921386
 30
0.0
 11
34.4312744140625
 21
25.55334281921386
 31
0.0
  0
LINE
  5
177
330
A
100
AcDbEntity
  8
TFR-TRI
  6
CONTINUOUS
 62
    30
100
AcDbLine
 10
42.78471755981445
 20
15.80957889556884
 30
0.0
 11
42.78471755981445
 21
15.7690258026123
 31
0.0
  0
LINE
  5
178
330
A
100
AcDbEntity
  8
TFR-TRI
  6
CONTINUOUS
 62
     2
100
AcDbLine
 10
16.62502479553222
 20
55.6617431640625
 30
0.0
 11
16.15627479553222
 21
55.6617431640625
 31
0.0
  0
LINE
  5
179
330
A
100
AcDbEntity
  8
TFR-TRI
  6
CONTINUOUS
 62
    30
100
AcDbLine
 10
24.3384780883789
 20
39.51186752319335
 30
0.0
 11
22.21715927124023
 21
41.63318634033203
 31
0.0
  0
LINE
  5
17A
330
A
100
AcDbEntity
  8
TFR-TRI
  6
CONTINUOUS
 62
    30
100
AcDbLine
 10
24.3384780883789
 20
57.71186447143555
 30
0.0
 11
22.21715927124023
 21
59.83318710327148
 31
0.0
  0
LINE
  5
17B
330
A
100
AcDbEntity
  8
TFR-TRI
  6
CONTINUOUS
 62
     2
100
AcDbLine
 10
34.43752670288086
 20
55.55334091186523
 30
0.0
 11
34.38969039916992
 21
55.55334091186523
 31
0.0
  0
LINE
  5
17C
330
A
100
AcDbEntity
  8
TFR-TRI
  6
CONTINUOUS
 62
    30
100
AcDbLine
 10
26.72407150268554
 20
31.71186637878418
 30
0.0
 11
28.84539222717285
 21
33.83318710327148
 31
0.0
  0
LINE
  5
17D
330
A
100
AcDbEntity
  8
TFR-TRI
  6
CONTINUOUS
 62
     2
100
AcDbLine
 10
32.70686721801757
 20
55.49334335327149
 30
0.0
 11
33.23732376098632
 21
55.49334335327149
 31
0.0
  0
LINE
  5
17E
330
A
100
AcDbEntity
  8
TFR-TRI
  6
CONTINUOUS
 62
    30
100
AcDbLine
 10
24.3384780883789
 20
44.71186447143554
 30
0.0
 11
22.21715927124023
 21
46.83318710327148
 31
0.0
  0
LINE
  5
17F
330
A
100
AcDbEntity
  8
TFR-TRI
  6
CONTINUOUS
 62
     2
100
AcDbLine
 10
16.75002479553222
 20
55.55334091186523
 30
0.0
 11
16.74050903320312
 21
55.55334091186523
 31
0.0
  0
LINE
  5
180
330
A
100
AcDbEntity
  8
TFR-TRI
  6
CONTINUOUS
 62
    30
100
AcDbLine
 10
16.95887565612792
 20
25.45547676086425
 30
0.0
 11
16.95887565612792
 21
25.44494247436523
 31
0.0
  0
LINE
  5
181
330
A
100
AcDbEntity
  8
TFR-TRI
  6
CONTINUOUS
 62
     2
100
AcDbLine
 10
16.67286109924316
 20
55.6617431640625
 30
0.0
 11
16.71341323852539
 21
55.6617431640625
 31
0.0
  0
LINE
  5
182
330
A
100
AcDbEntity
  8
TFR-TRI
  6
CONTINUOUS
 62
    30
100
AcDbLine
 10
34.14287567138671
 20
25.66174125671386
 30
0.0
 11
34.14287567138671
 21
61.9117431640625
 31
0.0
  0
LINE
  5
183
330
A
100
AcDbEntity
  8
TFR-TRI
  6
CONTINUOUS
 62
    30
100
AcDbLine
 10
24.60364341735839
 20
47.57703018188476
 30
0.0
 11
22.48232269287109
 21
49.6983528137207
 31
0.0
  0
LINE
  5
184
330
A
100
AcDbEntity
  8
TFR-TRI
  6
CONTINUOUS
 62
    30
100
AcDbLine
 10
16.31377410888672
 20
16.46991348266601
 30
0.0
 11
16.43877410888672
 21
16.46991348266601
 31
0.0
  0
LINE
  5
185
330
A
100
AcDbEntity
  8
TFR-TRI
  6
CONTINUOUS
 62
    30
100
AcDbLine
 10
34.4312744140625
 20
25.44494247436523
 30
0.0
 11
34.38343811035156
 21
25.44494247436523
 31
0.0
  0
LINE
  5
186
330
A
100
AcDbEntity
  8
TFR-TRI
  6
CONTINUOUS
 62
    30
100
AcDbLine
 10
16.15627479553222
 20
17.45741462707519
 30
0.0
 11
16.63127517700195
 21
17.45741462707519
 31
0.0
  0
LINE
  5
187
330
A
100
AcDbEntity
  8
TFR-TRI
  6
CONTINUOUS
 62
     2
100
AcDbLine
 10
72.40971374511719
 20
15.8408145904541
 30
0.0
 11
72.40971374511719
 21
15.73241424560547
 31
0.0
  0
LINE
  5
188
330
A
100
AcDbEntity
  8
TFR-TRI
  6
CONTINUOUS
 62
    30
100
AcDbLine
 10
16.67910957336425
 20
25.44494247436523
 30
0.0
 11
16.63127517700195
 21
25.44494247436523
 31
0.0
  0
LINE
  5
189
330
A
100
AcDbEntity
  8
TFR-TRI
  6
CONTINUOUS
 62
     2
100
AcDbLine
 10
16.75002479553222
 20
55.6617431640625
 30
0.0
 11
16.75807189941406
 21
55.6617431640625
 31
0.0
  0
LINE
  5
18A
330
A
100
AcDbEntity
  8
TFR-TRI
  6
CONTINUOUS
 62
     2
100
AcDbLine
 10
19.81954002380371
 20
54.88744354248047
 30
0.0
 11
20.10561943054199
 21
54.88744354248047
 31
0.0
  0
LINE
  5
18B
330
A
100
AcDbEntity
  8
TFR-TRI
  6
CONTINUOUS
 62
     2
100
AcDbLine
 10
34.99466323852539
 20
55.55334091186523
 30
0.0
 11
34.95410919189453
 21
55.55334091186523
 31
0.0
  0
LINE
  5
18C
330
A
100
AcDbEntity
  8
TFR-TRI
  6
CONTINUOUS
 62
     2
100
AcDbLine
 10
72.29422760009765
 20
15.8408145904541
 30
0.0
 11
72.32132720947266
 21
15.8408145904541
 31
0.0
  0
LINE
  5
18D
330
A
100
AcDbEntity
  8
TFR-TRI
  6
CONTINUOUS
 62
    30
100
AcDbLine
 10
17.70890617370605
 20
29.37703132629394
 30
0.0
 11
19.83022689819335
 21
31.49835205078125
 31
0.0
  0
LINE
  5
18E
330
A
100
AcDbEntity
  8
TFR-TRI
  6
CONTINUOUS
 62
     2
100
AcDbLine
 10
72.78471374511719
 20
15.80957889556884
 30
0.0
 11
72.78471374511719
 21
15.85741424560547
 31
0.0
  0
LINE
  5
18F
330
A
100
AcDbEntity
  8
TFR-TRI
  6
CONTINUOUS
 62
    30
100
AcDbLine
 10
42.78471755981445
 20
17.3802490234375
 30
0.0
 11
42.78471755981445
 21
17.33241462707519
 31
0.0
  0
LINE
  5
190
330
A
100
AcDbEntity
  8
TFR-TRI
  6
CONTINUOUS
 62
    30
100
AcDbLine
 10
16.95887565612792
 20
25.5303783416748
 30
0.0
 11
16.95887565612792
 21
25.48547744750976
 31
0.0
  0
LINE
  5
191
330
A
100
AcDbEntity
  8
TFR-TRI
  6
CONTINUOUS
 62
     2
100
AcDbLine
 10
16.10844039916992
 20
55.6617431640625
 30
0.0
 11
16.15627479553222
 21
55.6617431640625
 31
0.0
  0
LINE
  5
192
330
A
100
AcDbEntity
  8
TFR-TRI
  6
CONTINUOUS
 62
     2
100
AcDbLine
 10
72.89311981201172
 20
15.73241424560547
 30
0.0
 11
72.78471374511719
 21
15.73241424560547
 31
0.0
  0
LINE
  5
193
330
A
100
AcDbEntity
  8
TFR-TRI
  6
CONTINUOUS
 62
    30
100
AcDbLine
 10
42.67631530761718
 20
15.80957889556884
 30
0.0
 11
42.67631530761718
 21
15.85741424560547
 31
0.0
  0
LINE
  5
194
330
A
100
AcDbEntity
  8
TFR-TRI
  6
CONTINUOUS
 62
    30
100
AcDbLine
 10
26.45890617370605
 20
52.77703094482422
 30
0.0
 11
28.58022689819335
 21
54.89834976196289
 31
0.0
  0
LINE
  5
195
330
A
100
AcDbEntity
  8
TFR-TRI
  6
CONTINUOUS
 62
    30
100
AcDbLine
 10
16.31377410888672
 20
15.84491443634033
 30
0.0
 11
16.43877410888672
 21
15.84491443634033
 31
0.0
  0
LINE
  5
196
330
A
100
AcDbEntity
  8
TFR-TRI
  6
CONTINUOUS
 62
    30
100
AcDbLine
 10
24.3384780883789
 20
36.911865234375
 30
0.0
 11
22.21715927124023
 21
39.03318786621094
 31
0.0
  0
LINE
  5
197
330
A
100
AcDbEntity
  8
TFR-TRI
  6
CONTINUOUS
 62
    30
100
AcDbLine
 10
79.14311981201172
 20
16.46794891357421
 30
0.0
 11
79.14311981201172
 21
16.45741462707519
 31
0.0
  0
LINE
  5
198
330
A
100
AcDbEntity
  8
TFR-TRI
  6
CONTINUOUS
 62
    30
100
AcDbLine
 10
17.70890617370605
 20
37.17703247070312
 30
0.0
 11
19.83022689819335
 21
39.2983512878418
 31
0.0
  0
LINE
  5
199
330
A
100
AcDbEntity
  8
TFR-TRI
  6
CONTINUOUS
 62
    30
100
AcDbLine
 10
24.3384780883789
 20
26.51186561584472
 30
0.0
 11
22.21715927124023
 21
28.63318634033203
 31
0.0
  0
LINE
  5
19A
330
A
100
AcDbEntity
  8
TFR-TRI
  6
CONTINUOUS
 62
    30
100
AcDbLine
 10
42.78471755981445
 20
15.74192905426025
 30
0.0
 11
42.78471755981445
 21
15.73241424560547
 31
0.0
  0
LINE
  5
19B
330
A
100
AcDbEntity
  8
TFR-TRI
  6
CONTINUOUS
 62
    30
100
AcDbLine
 10
16.95887565612792
 20
17.31901359558105
 30
0.0
 11
34.10367584228515
 21
17.31901359558105
 31
0.0
  0
LINE
  5
19C
330
A
100
AcDbEntity
  8
TFR-TRI
  6
CONTINUOUS
 62
    30
100
AcDbLine
 10
16.15627479553222
 20
25.55334281921386
 30
0.0
 11
16.15627479553222
 21
25.44494247436523
 31
0.0
  0
LINE
  5
19D
330
A
100
AcDbEntity
  8
TFR-TRI
  6
CONTINUOUS
 62
    30
100
AcDbLine
 10
42.89311599731445
 20
17.44687843322753
 30
0.0
 11
42.89311599731445
 21
17.41687774658203
 31
0.0
  0
LINE
  5
19E
330
A
100
AcDbEntity
  8
TFR-TRI
  6
CONTINUOUS
 62
    30
100
AcDbLine
 10
42.89311599731445
 20
16.62581443786621
 30
0.0
 11
43.64311599731445
 21
16.62581443786621
 31
0.0
  0
LINE
  5
19F
330
A
100
AcDbEntity
  8
TFR-TRI
  6
CONTINUOUS
 62
     2
100
AcDbLine
 10
72.78471374511719
 20
15.7690258026123
 30
0.0
 11
72.78471374511719
 21
15.80957889556884
 31
0.0
  0
ARC
  5
1A0
330
A
100
AcDbEntity
  8
TFR-TRI
  6
CONTINUOUS
 62
    30
100
AcDbCircle
 10
31.09974098205566
 20
46.96576690673828
 30
0.0
 40
0.1875
100
AcDbArc
 50
45.0
 51
225.0
  0
ARC
  5
1A1
330
A
100
AcDbEntity
  8
TFR-TRI
  6
CONTINUOUS
 62
    30
100
AcDbCircle
 10
28.71280860900879
 20
57.36576843261719
 30
0.0
 40
0.1875
100
AcDbArc
 50
315.0
 51
134.9999999999999
  0
ARC
  5
1A2
330
A
100
AcDbEntity
  8
TFR-TRI
  6
CONTINUOUS
 62
    30
100
AcDbCircle
 10
17.84148788452148
 20
47.4444465637207
 30
0.0
 40
0.1875
100
AcDbArc
 50
135.0
 51
315.0
  0
ARC
  5
1A3
330
A
100
AcDbEntity
  8
TFR-TRI
  6
CONTINUOUS
 62
    30
100
AcDbCircle
 10
28.71280860900879
 20
49.56576919555664
 30
0.0
 40
0.1875
100
AcDbArc
 50
315.0
 51
134.9999999999999
  0
ARC
  5
1A4
330
A
100
AcDbEntity
  8
TFR-TRI
  6
CONTINUOUS
 62
    30
100
AcDbCircle
 10
33.22106170654297
 20
34.4444465637207
 30
0.0
 40
0.1875
100
AcDbArc
 50
225.0
 51
45.0
  0
ARC
  5
1A5
330
A
100
AcDbEntity
  8
TFR-TRI
  6
CONTINUOUS
 62
    30
100
AcDbCircle
 10
26.59148788452148
 20
39.64444732666015
 30
0.0
 40
0.1875
100
AcDbArc
 50
135.0
 51
315.0
  0
ARC
  5
1A6
330
A
100
AcDbEntity
  8
TFR-TRI
  6
CONTINUOUS
 62
    30
100
AcDbCircle
 10
16.31377410888672
 20
15.96991443634033
 30
0.0
 40
0.125
100
AcDbArc
 50
90.0
 51
270.0
  0
ARC
  5
1A7
330
A
100
AcDbEntity
  8
TFR-TRI
  6
CONTINUOUS
 62
    30
100
AcDbCircle
 10
31.09974098205566
 20
28.76576805114746
 30
0.0
 40
0.1875
100
AcDbArc
 50
45.0
 51
225.0
  0
ARC
  5
1A8
330
A
100
AcDbEntity
  8
TFR-TRI
  6
CONTINUOUS
 62
    30
100
AcDbCircle
 10
26.59148788452148
 20
34.4444465637207
 30
0.0
 40
0.1875
100
AcDbArc
 50
135.0
 51
315.0
  0
ARC
  5
1A9
330
A
100
AcDbEntity
  8
TFR-TRI
  6
CONTINUOUS
 62
    30
100
AcDbCircle
 10
24.47106170654297
 20
50.04444885253906
 30
0.0
 40
0.1875
100
AcDbArc
 50
225.0
 51
45.0
  0
ARC
  5
1AA
330
A
100
AcDbEntity
  8
TFR-TRI
  6
CONTINUOUS
 62
    30
100
AcDbCircle
 10
22.34974098205566
 20
39.16576766967773
 30
0.0
 40
0.1875
100
AcDbArc
 50
45.0
 51
225.0
  0
ARC
  5
1AB
330
A
100
AcDbEntity
  8
TFR-TRI
  6
CONTINUOUS
 62
    30
100
AcDbCircle
 10
22.34974098205566
 20
44.36576843261718
 30
0.0
 40
0.1875
100
AcDbArc
 50
45.0
 51
225.0
  0
ARC
  5
1AC
330
A
100
AcDbEntity
  8
TFR-TRI
  6
CONTINUOUS
 62
    30
100
AcDbCircle
 10
34.74877548217773
 20
16.59491348266601
 30
0.0
 40
0.125
100
AcDbArc
 50
270.0
 51
90.0
  0
ARC
  5
1AD
330
A
100
AcDbEntity
  8
TFR-TRI
  6
CONTINUOUS
 62
    30
100
AcDbCircle
 10
19.96280860900879
 20
41.76576995849609
 30
0.0
 40
0.1875
100
AcDbArc
 50
315.0
 51
134.9999999999999
  0
ARC
  5
1AE
330
A
100
AcDbEntity
  8
TFR-TRI
  6
CONTINUOUS
 62
    30
100
AcDbCircle
 10
26.59148788452148
 20
55.24444961547851
 30
0.0
 40
0.1875
100
AcDbArc
 50
135.0
 51
315.0
  0
ARC
  5
1AF
330
A
100
AcDbEntity
  8
TFR-TRI
  6
CONTINUOUS
 62
    30
100
AcDbCircle
 10
33.22106170654297
 20
50.04444885253906
 30
0.0
 40
0.1875
100
AcDbArc
 50
225.0
 51
45.0
  0
ARC
  5
1B0
330
A
100
AcDbEntity
  8
TFR-TRI
  6
CONTINUOUS
 62
    30
100
AcDbCircle
 10
19.96280860900879
 20
54.76576995849609
 30
0.0
 40
0.1875
100
AcDbArc
 50
315.0
 51
134.9999999999999
  0
ARC
  5
1B1
330
A
100
AcDbEntity
  8
TFR-TRI
  6
CONTINUOUS
 62
    30
100
AcDbCircle
 10
31.09974098205566
 20
44.36576843261718
 30
0.0
 40
0.1875
100
AcDbArc
 50
45.0
 51
225.0
  0
ARC
  5
1B2
330
A
100
AcDbEntity
  8
TFR-TRI
  6
CONTINUOUS
 62
    30
100
AcDbCircle
 10
17.84148788452148
 20
44.84444808959961
 30
0.0
 40
0.1875
100
AcDbArc
 50
135.0
 51
315.0
  0
ARC
  5
1B3
330
A
100
AcDbEntity
  8
TFR-TRI
  6
CONTINUOUS
 62
    30
100
AcDbCircle
 10
16.91967582702636
 20
17.31901359558105
 30
0.0
 40
0.0299999993294478
100
AcDbArc
 50
90.0
 51
180.0
  0
ARC
  5
1B4
330
A
100
AcDbEntity
  8
TFR-TRI
  6
CONTINUOUS
 62
    30
100
AcDbCircle
 10
28.71280860900879
 20
46.96576690673828
 30
0.0
 40
0.1875
100
AcDbArc
 50
315.0
 51
134.9999999999999
  0
ARC
  5
1B5
330
A
100
AcDbEntity
  8
TFR-TRI
  6
CONTINUOUS
 62
    30
100
AcDbCircle
 10
33.22106170654297
 20
31.84444808959961
 30
0.0
 40
0.1875
100
AcDbArc
 50
225.0
 51
45.0
  0
ARC
  5
1B6
330
A
100
AcDbEntity
  8
TFR-TRI
  6
CONTINUOUS
 62
    30
100
AcDbCircle
 10
22.34974098205566
 20
59.96576690673828
 30
0.0
 40
0.1875
100
AcDbArc
 50
45.0
 51
225.0
  0
ARC
  5
1B7
330
A
100
AcDbEntity
  8
TFR-TRI
  6
CONTINUOUS
 62
    30
100
AcDbCircle
 10
26.59148788452148
 20
31.84444808959961
 30
0.0
 40
0.1875
100
AcDbArc
 50
135.0
 51
315.0
  0
ARC
  5
1B8
330
A
100
AcDbEntity
  8
TFR-TRI
  6
CONTINUOUS
 62
    30
100
AcDbCircle
 10
16.63127517700195
 20
17.33241462707519
 30
0.0
 40
0.125
100
AcDbArc
 50
0.0
 51
90.0
  0
ARC
  5
1B9
330
A
100
AcDbEntity
  8
TFR-TRI
  6
CONTINUOUS
 62
    30
100
AcDbCircle
 10
19.96280860900879
 20
31.36576843261718
 30
0.0
 40
0.1875
100
AcDbArc
 50
315.0
 51
134.9999999999999
  0
ARC
  5
1BA
330
A
100
AcDbEntity
  8
TFR-TRI
  6
CONTINUOUS
 62
    30
100
AcDbCircle
 10
26.59148788452148
 20
29.24444770812988
 30
0.0
 40
0.1875
100
AcDbArc
 50
135.0
 51
315.0
  0
ARC
  5
1BB
330
A
100
AcDbEntity
  8
TFR-TRI
  6
CONTINUOUS
 62
    30
100
AcDbCircle
 10
28.71280860900879
 20
54.76576995849609
 30
0.0
 40
0.1875
100
AcDbArc
 50
315.0
 51
134.9999999999999
  0
ARC
  5
1BC
330
A
100
AcDbEntity
  8
TFR-TRI
  6
CONTINUOUS
 62
    30
100
AcDbCircle
 10
19.96280860900879
 20
39.16576766967773
 30
0.0
 40
0.1875
100
AcDbArc
 50
315.0
 51
134.9999999999999
  0
ARC
  5
1BD
330
A
100
AcDbEntity
  8
TFR-TRI
  6
CONTINUOUS
 62
    30
100
AcDbCircle
 10
34.74877548217773
 20
17.21991348266601
 30
0.0
 40
0.125
100
AcDbArc
 50
270.0
 51
90.0
  0
ARC
  5
1BE
330
A
100
AcDbEntity
  8
TFR-TRI
  6
CONTINUOUS
 62
    30
100
AcDbCircle
 10
22.34974098205566
 20
28.76576805114746
 30
0.0
 40
0.1875
100
AcDbArc
 50
45.0
 51
225.0
  0
ARC
  5
1BF
330
A
100
AcDbEntity
  8
TFR-TRI
  6
CONTINUOUS
 62
    30
100
AcDbCircle
 10
24.47106170654297
 20
39.64444732666015
 30
0.0
 40
0.1875
100
AcDbArc
 50
225.0
 51
45.0
  0
ARC
  5
1C0
330
A
100
AcDbEntity
  8
TFR-TRI
  6
CONTINUOUS
 62
    30
100
AcDbCircle
 10
31.09974098205566
 20
31.36576843261718
 30
0.0
 40
0.1875
100
AcDbArc
 50
45.0
 51
225.0
  0
ARC
  5
1C1
330
A
100
AcDbEntity
  8
TFR-TRI
  6
CONTINUOUS
 62
    30
100
AcDbCircle
 10
19.96280860900879
 20
33.96576690673828
 30
0.0
 40
0.1875
100
AcDbArc
 50
315.0
 51
134.9999999999999
  0
ARC
  5
1C2
330
A
100
AcDbEntity
  8
TFR-TRI
  6
CONTINUOUS
 62
    30
100
AcDbCircle
 10
33.22106170654297
 20
47.4444465637207
 30
0.0
 40
0.1875
100
AcDbArc
 50
225.0
 51
45.0
  0
ARC
  5
1C3
330
A
100
AcDbEntity
  8
TFR-TRI
  6
CONTINUOUS
 62
    30
100
AcDbCircle
 10
19.96280860900879
 20
52.16576766967773
 30
0.0
 40
0.1875
100
AcDbArc
 50
315.0
 51
134.9999999999999
  0
ARC
  5
1C4
330
A
100
AcDbEntity
  8
TFR-TRI
  6
CONTINUOUS
 62
    30
100
AcDbCircle
 10
24.47106170654297
 20
44.84444808959961
 30
0.0
 40
0.1875
100
AcDbArc
 50
225.0
 51
45.0
  0
ARC
  5
1C5
330
A
100
AcDbEntity
  8
TFR-TRI
  6
CONTINUOUS
 62
    30
100
AcDbCircle
 10
31.09974098205566
 20
41.76576995849609
 30
0.0
 40
0.1875
100
AcDbArc
 50
45.0
 51
225.0
  0
ARC
  5
1C6
330
A
100
AcDbEntity
  8
TFR-TRI
  6
CONTINUOUS
 62
    30
100
AcDbCircle
 10
42.81471633911133
 20
17.31901359558105
 30
0.0
 40
0.0299999993294478
100
AcDbArc
 50
90.0
 51
180.0
  0
ARC
  5
1C7
330
A
100
AcDbEntity
  8
TFR-TRI
  6
CONTINUOUS
 62
    30
100
AcDbCircle
 10
28.71280860900879
 20
44.36576843261718
 30
0.0
 40
0.1875
100
AcDbArc
 50
315.0
 51
134.9999999999999
  0
ARC
  5
1C8
330
A
100
AcDbEntity
  8
TFR-TRI
  6
CONTINUOUS
 62
    30
100
AcDbCircle
 10
33.22106170654297
 20
29.24444770812988
 30
0.0
 40
0.1875
100
AcDbArc
 50
225.0
 51
45.0
  0
ARC
  5
1C9
330
A
100
AcDbEntity
  8
TFR-TRI
  6
CONTINUOUS
 62
    30
100
AcDbCircle
 10
31.09974098205566
 20
52.16576766967773
 30
0.0
 40
0.1875
100
AcDbArc
 50
45.0
 51
225.0
  0
ARC
  5
1CA
330
A
100
AcDbEntity
  8
TFR-TRI
  6
CONTINUOUS
 62
    30
100
AcDbCircle
 10
22.34974098205566
 20
57.36576843261719
 30
0.0
 40
0.1875
100
AcDbArc
 50
45.0
 51
225.0
  0
ARC
  5
1CB
330
A
100
AcDbEntity
  8
TFR-TRI
  6
CONTINUOUS
 62
     2
100
AcDbCircle
 10
72.72471618652343
 20
15.90081405639648
 30
0.0
 40
0.1684000045061111
100
AcDbArc
 50
270.0
 51
290.8729673910333
  0
ARC
  5
1CC
330
A
100
AcDbEntity
  8
TFR-TRI
  6
CONTINUOUS
 62
    30
100
AcDbCircle
 10
17.84148788452148
 20
37.04444885253906
 30
0.0
 40
0.1875
100
AcDbArc
 50
135.0
 51
315.0
  0
ARC
  5
1CD
330
A
100
AcDbEntity
  8
TFR-TRI
  6
CONTINUOUS
 62
    30
100
AcDbCircle
 10
22.34974098205566
 20
31.36576843261718
 30
0.0
 40
0.1875
100
AcDbArc
 50
45.0
 51
225.0
  0
ARC
  5
1CE
330
A
100
AcDbEntity
  8
TFR-TRI
  6
CONTINUOUS
 62
    30
100
AcDbCircle
 10
16.31377410888672
 20
16.59491348266601
 30
0.0
 40
0.125
100
AcDbArc
 50
90.0
 51
270.0
  0
ARC
  5
1CF
330
A
100
AcDbEntity
  8
TFR-TRI
  6
CONTINUOUS
 62
    30
100
AcDbCircle
 10
34.62377548217773
 20
16.59491348266601
 30
0.0
 40
0.125
100
AcDbArc
 50
90.0
 51
270.0
  0
ARC
  5
1D0
330
A
100
AcDbEntity
  8
TFR-TRI
  6
CONTINUOUS
 62
    30
100
AcDbCircle
 10
24.47106170654297
 20
31.84444808959961
 30
0.0
 40
0.1875
100
AcDbArc
 50
225.0
 51
45.0
  0
ARC
  5
1D1
330
A
100
AcDbEntity
  8
TFR-TRI
  6
CONTINUOUS
 62
    30
100
AcDbCircle
 10
28.71280860900879
 20
31.36576843261718
 30
0.0
 40
0.1875
100
AcDbArc
 50
315.0
 51
134.9999999999999
  0
ARC
  5
1D2
330
A
100
AcDbEntity
  8
TFR-TRI
  6
CONTINUOUS
 62
    30
100
AcDbCircle
 10
17.84148788452148
 20
57.8444480895996
 30
0.0
 40
0.1875
100
AcDbArc
 50
135.0
 51
315.0
  0
ARC
  5
1D3
330
A
100
AcDbEntity
  8
TFR-TRI
  6
CONTINUOUS
 62
    30
100
AcDbCircle
 10
17.84148788452148
 20
31.84444808959961
 30
0.0
 40
0.1875
100
AcDbArc
 50
135.0
 51
315.0
  0
ARC
  5
1D4
330
A
100
AcDbEntity
  8
TFR-TRI
  6
CONTINUOUS
 62
    30
100
AcDbCircle
 10
33.22106170654297
 20
44.84444808959961
 30
0.0
 40
0.1875
100
AcDbArc
 50
225.0
 51
45.0
  0
ARC
  5
1D5
330
A
100
AcDbEntity
  8
TFR-TRI
  6
CONTINUOUS
 62
    30
100
AcDbCircle
 10
31.09974098205566
 20
39.16576766967773
 30
0.0
 40
0.1875
100
AcDbArc
 50
45.0
 51
225.0
  0
ARC
  5
1D6
330
A
100
AcDbEntity
  8
TFR-TRI
  6
CONTINUOUS
 62
    30
100
AcDbCircle
 10
19.96280860900879
 20
36.56576919555664
 30
0.0
 40
0.1875
100
AcDbArc
 50
315.0
 51
134.9999999999999
  0
ARC
  5
1D7
330
A
100
AcDbEntity
  8
TFR-TRI
  6
CONTINUOUS
 62
    30
100
AcDbCircle
 10
28.71280860900879
 20
41.76576995849609
 30
0.0
 40
0.1875
100
AcDbArc
 50
315.0
 51
134.9999999999999
  0
ARC
  5
1D8
330
A
100
AcDbEntity
  8
TFR-TRI
  6
CONTINUOUS
 62
    30
100
AcDbCircle
 10
34.62377548217773
 20
17.21991348266601
 30
0.0
 40
0.125
100
AcDbArc
 50
90.0
 51
270.0
  0
ARC
  5
1D9
330
A
100
AcDbEntity
  8
TFR-TRI
  6
CONTINUOUS
 62
    30
100
AcDbCircle
 10
33.22106170654297
 20
26.64444923400878
 30
0.0
 40
0.1875
100
AcDbArc
 50
225.0
 51
45.0
  0
ARC
  5
1DA
330
A
100
AcDbEntity
  8
TFR-TRI
  6
CONTINUOUS
 62
    30
100
AcDbCircle
 10
34.62377548217773
 20
15.96991443634033
 30
0.0
 40
0.125
100
AcDbArc
 50
90.0
 51
270.0
  0
ARC
  5
1DB
330
A
100
AcDbEntity
  8
TFR-TRI
  6
CONTINUOUS
 62
    30
100
AcDbCircle
 10
28.71280860900879
 20
36.56576919555664
 30
0.0
 40
0.1875
100
AcDbArc
 50
315.0
 51
134.9999999999999
  0
ARC
  5
1DC
330
A
100
AcDbEntity
  8
TFR-TRI
  6
CONTINUOUS
 62
    30
100
AcDbCircle
 10
17.84148788452148
 20
50.04444885253906
 30
0.0
 40
0.1875
100
AcDbArc
 50
135.0
 51
315.0
  0
ARC
  5
1DD
330
A
100
AcDbEntity
  8
TFR-TRI
  6
CONTINUOUS
 62
    30
100
AcDbCircle
 10
22.34974098205566
 20
54.76576995849609
 30
0.0
 40
0.1875
100
AcDbArc
 50
45.0
 51
225.0
  0
ARC
  5
1DE
330
A
100
AcDbEntity
  8
TFR-TRI
  6
CONTINUOUS
 62
    30
100
AcDbCircle
 10
17.84148788452148
 20
34.4444465637207
 30
0.0
 40
0.1875
100
AcDbArc
 50
135.0
 51
315.0
  0
ARC
  5
1DF
330
A
100
AcDbEntity
  8
TFR-TRI
  6
CONTINUOUS
 62
    30
100
AcDbCircle
 10
34.90627670288086
 20
17.33241462707519
 30
0.0
 40
0.125
100
AcDbArc
 50
0.0
 51
90.0
  0
ARC
  5
1E0
330
A
100
AcDbEntity
  8
TFR-TRI
  6
CONTINUOUS
 62
    30
100
AcDbCircle
 10
22.34974098205566
 20
41.76576995849609
 30
0.0
 40
0.1875
100
AcDbArc
 50
45.0
 51
225.0
  0
ARC
  5
1E1
330
A
100
AcDbEntity
  8
TFR-TRI
  6
CONTINUOUS
 62
    30
100
AcDbCircle
 10
26.59148788452148
 20
57.8444480895996
 30
0.0
 40
0.1875
100
AcDbArc
 50
135.0
 51
315.0
  0
ARC
  5
1E2
330
A
100
AcDbEntity
  8
TFR-TRI
  6
CONTINUOUS
 62
    30
100
AcDbCircle
 10
34.14287567138671
 20
17.31901359558105
 30
0.0
 40
0.0299999993294478
100
AcDbArc
 50
0.0
 51
90.0
  0
ARC
  5
1E3
330
A
100
AcDbEntity
  8
TFR-TRI
  6
CONTINUOUS
 62
    30
100
AcDbCircle
 10
17.84148788452148
 20
26.64444923400878
 30
0.0
 40
0.1875
100
AcDbArc
 50
135.0
 51
315.0
  0
ARC
  5
1E4
330
A
100
AcDbEntity
  8
TFR-TRI
  6
CONTINUOUS
 62
    30
100
AcDbCircle
 10
31.09974098205566
 20
59.96576690673828
 30
0.0
 40
0.1875
100
AcDbArc
 50
45.0
 51
225.0
  0
ARC
  5
1E5
330
A
100
AcDbEntity
  8
TFR-TRI
  6
CONTINUOUS
 62
    30
100
AcDbCircle
 10
16.15627479553222
 20
17.33241462707519
 30
0.0
 40
0.125
100
AcDbArc
 50
90.0
 51
180.0
  0
ARC
  5
1E6
330
A
100
AcDbEntity
  8
TFR-TRI
  6
CONTINUOUS
 62
    30
100
AcDbCircle
 10
31.09974098205566
 20
54.76576995849609
 30
0.0
 40
0.1875
100
AcDbArc
 50
45.0
 51
225.0
  0
ARC
  5
1E7
330
A
100
AcDbEntity
  8
TFR-TRI
  6
CONTINUOUS
 62
    30
100
AcDbCircle
 10
17.84148788452148
 20
55.24444961547851
 30
0.0
 40
0.1875
100
AcDbArc
 50
135.0
 51
315.0
  0
ARC
  5
1E8
330
A
100
AcDbEntity
  8
TFR-TRI
  6
CONTINUOUS
 62
    30
100
AcDbCircle
 10
33.22106170654297
 20
42.24444961547852
 30
0.0
 40
0.1875
100
AcDbArc
 50
225.0
 51
45.0
  0
ARC
  5
1E9
330
A
100
AcDbEntity
  8
TFR-TRI
  6
CONTINUOUS
 62
    30
100
AcDbCircle
 10
19.96280860900879
 20
46.96576690673828
 30
0.0
 40
0.1875
100
AcDbArc
 50
315.0
 51
134.9999999999999
  0
ARC
  5
1EA
330
A
100
AcDbEntity
  8
TFR-TRI
  6
CONTINUOUS
 62
    30
100
AcDbCircle
 10
26.59148788452148
 20
47.4444465637207
 30
0.0
 40
0.1875
100
AcDbArc
 50
135.0
 51
315.0
  0
ARC
  5
1EB
330
A
100
AcDbEntity
  8
TFR-TRI
  6
CONTINUOUS
 62
    30
100
AcDbCircle
 10
31.09974098205566
 20
36.56576919555664
 30
0.0
 40
0.1875
100
AcDbArc
 50
45.0
 51
225.0
  0
ARC
  5
1EC
330
A
100
AcDbEntity
  8
TFR-TRI
  6
CONTINUOUS
 62
    30
100
AcDbCircle
 10
24.47106170654297
 20
37.04444885253906
 30
0.0
 40
0.1875
100
AcDbArc
 50
225.0
 51
45.0
  0
ARC
  5
1ED
330
A
100
AcDbEntity
  8
TFR-TRI
  6
CONTINUOUS
 62
    30
100
AcDbCircle
 10
24.47106170654297
 20
57.8444480895996
 30
0.0
 40
0.1875
100
AcDbArc
 50
225.0
 51
45.0
  0
ARC
  5
1EE
330
A
100
AcDbEntity
  8
TFR-TRI
  6
CONTINUOUS
 62
    30
100
AcDbCircle
 10
17.84148788452148
 20
52.64444732666015
 30
0.0
 40
0.1875
100
AcDbArc
 50
135.0
 51
315.0
  0
ARC
  5
1EF
330
A
100
AcDbEntity
  8
TFR-TRI
  6
CONTINUOUS
 62
    30
100
AcDbCircle
 10
22.34974098205566
 20
52.16576766967773
 30
0.0
 40
0.1875
100
AcDbArc
 50
45.0
 51
225.0
  0
ARC
  5
1F0
330
A
100
AcDbEntity
  8
TFR-TRI
  6
CONTINUOUS
 62
    30
100
AcDbCircle
 10
28.71280860900879
 20
39.16576766967773
 30
0.0
 40
0.1875
100
AcDbArc
 50
315.0
 51
134.9999999999999
  0
ARC
  5
1F1
330
A
100
AcDbEntity
  8
TFR-TRI
  6
CONTINUOUS
 62
    30
100
AcDbCircle
 10
33.22106170654297
 20
55.24444961547851
 30
0.0
 40
0.1875
100
AcDbArc
 50
225.0
 51
45.0
  0
ARC
  5
1F2
330
A
100
AcDbEntity
  8
TFR-TRI
  6
CONTINUOUS
 62
    30
100
AcDbCircle
 10
17.84148788452148
 20
39.64444732666015
 30
0.0
 40
0.1875
100
AcDbArc
 50
135.0
 51
315.0
  0
ARC
  5
1F3
330
A
100
AcDbEntity
  8
TFR-TRI
  6
CONTINUOUS
 62
    30
100
AcDbCircle
 10
24.47106170654297
 20
26.64444923400878
 30
0.0
 40
0.1875
100
AcDbArc
 50
225.0
 51
45.0
  0
ARC
  5
1F4
330
A
100
AcDbEntity
  8
TFR-TRI
  6
CONTINUOUS
 62
    30
100
AcDbCircle
 10
16.43877410888672
 20
17.21991348266601
 30
0.0
 40
0.125
100
AcDbArc
 50
270.0
 51
90.0
  0
ARC
  5
1F5
330
A
100
AcDbEntity
  8
TFR-TRI
  6
CONTINUOUS
 62
    30
100
AcDbCircle
 10
22.34974098205566
 20
33.96576690673828
 30
0.0
 40
0.1875
100
AcDbArc
 50
45.0
 51
225.0
  0
ARC
  5
1F6
330
A
100
AcDbEntity
  8
TFR-TRI
  6
CONTINUOUS
 62
    30
100
AcDbCircle
 10
33.22106170654297
 20
39.64444732666015
 30
0.0
 40
0.1875
100
AcDbArc
 50
225.0
 51
45.0
  0
ARC
  5
1F7
330
A
100
AcDbEntity
  8
TFR-TRI
  6
CONTINUOUS
 62
    30
100
AcDbCircle
 10
28.71280860900879
 20
28.76576805114746
 30
0.0
 40
0.1875
100
AcDbArc
 50
315.0
 51
134.9999999999999
  0
ARC
  5
1F8
330
A
100
AcDbEntity
  8
TFR-TRI
  6
CONTINUOUS
 62
    30
100
AcDbCircle
 10
26.59148788452148
 20
44.84444808959961
 30
0.0
 40
0.1875
100
AcDbArc
 50
135.0
 51
315.0
  0
ARC
  5
1F9
330
A
100
AcDbEntity
  8
TFR-TRI
  6
CONTINUOUS
 62
    30
100
AcDbCircle
 10
17.84148788452148
 20
42.24444961547852
 30
0.0
 40
0.1875
100
AcDbArc
 50
135.0
 51
315.0
  0
ARC
  5
1FA
330
A
100
AcDbEntity
  8
TFR-TRI
  6
CONTINUOUS
 62
    30
100
AcDbCircle
 10
31.09974098205566
 20
33.96576690673828
 30
0.0
 40
0.1875
100
AcDbArc
 50
45.0
 51
225.0
  0
ARC
  5
1FB
330
A
100
AcDbEntity
  8
TFR-TRI
  6
CONTINUOUS
 62
    30
100
AcDbCircle
 10
24.47106170654297
 20
55.24444961547851
 30
0.0
 40
0.1875
100
AcDbArc
 50
225.0
 51
45.0
  0
ARC
  5
1FC
330
A
100
AcDbEntity
  8
TFR-TRI
  6
CONTINUOUS
 62
    30
100
AcDbCircle
 10
24.47106170654297
 20
42.24444961547852
 30
0.0
 40
0.1875
100
AcDbArc
 50
225.0
 51
45.0
  0
ARC
  5
1FD
330
A
100
AcDbEntity
  8
TFR-TRI
  6
CONTINUOUS
 62
    30
100
AcDbCircle
 10
16.91967582702636
 20
17.31901359558105
 30
0.0
 40
0.1384000033140182
100
AcDbArc
 50
90.0
 51
180.0
  0
ARC
  5
1FE
330
A
100
AcDbEntity
  8
TFR-TRI
  6
CONTINUOUS
 62
     2
100
AcDbCircle
 10
72.72471618652343
 20
15.90081405639648
 30
0.0
 40
0.0599999986588955
100
AcDbArc
 50
270.0
 51
0.0
  0
ARC
  5
1FF
330
A
100
AcDbEntity
  8
TFR-TRI
  6
CONTINUOUS
 62
    30
100
AcDbCircle
 10
22.34974098205566
 20
49.56576919555664
 30
0.0
 40
0.1875
100
AcDbArc
 50
45.0
 51
225.0
  0
ARC
  5
200
330
A
100
AcDbEntity
  8
TFR-TRI
  6
CONTINUOUS
 62
    30
100
AcDbCircle
 10
34.4312744140625
 20
17.33241462707519
 30
0.0
 40
0.125
100
AcDbArc
 50
90.0
 51
180.0
  0
ARC
  5
201
330
A
100
AcDbEntity
  8
TFR-TRI
  6
CONTINUOUS
 62
    30
100
AcDbCircle
 10
31.09974098205566
 20
57.36576843261719
 30
0.0
 40
0.1875
100
AcDbArc
 50
45.0
 51
225.0
  0
ARC
  5
202
330
A
100
AcDbEntity
  8
TFR-TRI
  6
CONTINUOUS
 62
    30
100
AcDbCircle
 10
24.47106170654297
 20
47.4444465637207
 30
0.0
 40
0.1875
100
AcDbArc
 50
225.0
 51
45.0
  0
ARC
  5
203
330
A
100
AcDbEntity
  8
TFR-TRI
  6
CONTINUOUS
 62
    30
100
AcDbCircle
 10
16.15627479553222
 20
15.85741424560547
 30
0.0
 40
0.125
100
AcDbArc
 50
180.0
 51
270.0
  0
ARC
  5
204
330
A
100
AcDbEntity
  8
TFR-TRI
  6
CONTINUOUS
 62
    30
100
AcDbCircle
 10
24.47106170654297
 20
34.4444465637207
 30
0.0
 40
0.1875
100
AcDbArc
 50
225.0
 51
45.0
  0
ARC
  5
205
330
A
100
AcDbEntity
  8
TFR-TRI
  6
CONTINUOUS
 62
    30
100
AcDbCircle
 10
17.84148788452148
 20
29.24444770812988
 30
0.0
 40
0.1875
100
AcDbArc
 50
135.0
 51
315.0
  0
ARC
  5
206
330
A
100
AcDbEntity
  8
TFR-TRI
  6
CONTINUOUS
 62
    30
100
AcDbCircle
 10
34.14287567138671
 20
17.31901359558105
 30
0.0
 40
0.1384000033140182
100
AcDbArc
 50
0.0
 51
90.0
  0
ARC
  5
207
330
A
100
AcDbEntity
  8
TFR-TRI
  6
CONTINUOUS
 62
    30
100
AcDbCircle
 10
24.47106170654297
 20
52.64444732666015
 30
0.0
 40
0.1875
100
AcDbArc
 50
225.0
 51
45.0
  0
ARC
  5
208
330
A
100
AcDbEntity
  8
TFR-TRI
  6
CONTINUOUS
 62
    30
100
AcDbCircle
 10
16.43877410888672
 20
15.96991443634033
 30
0.0
 40
0.125
100
AcDbArc
 50
270.0
 51
90.0
  0
ARC
  5
209
330
A
100
AcDbEntity
  8
TFR-TRI
  6
CONTINUOUS
 62
    30
100
AcDbCircle
 10
22.34974098205566
 20
36.56576919555664
 30
0.0
 40
0.1875
100
AcDbArc
 50
45.0
 51
225.0
  0
ARC
  5
20A
330
A
100
AcDbEntity
  8
TFR-TRI
  6
CONTINUOUS
 62
    30
100
AcDbCircle
 10
26.59148788452148
 20
52.64444732666015
 30
0.0
 40
0.1875
100
AcDbArc
 50
135.0
 51
315.0
  0
ARC
  5
20B
330
A
100
AcDbEntity
  8
TFR-TRI
  6
CONTINUOUS
 62
    30
100
AcDbCircle
 10
19.96280860900879
 20
59.96576690673828
 30
0.0
 40
0.1875
100
AcDbArc
 50
315.0
 51
134.9999999999999
  0
ARC
  5
20C
330
A
100
AcDbEntity
  8
TFR-TRI
  6
CONTINUOUS
 62
    30
100
AcDbCircle
 10
31.09974098205566
 20
49.56576919555664
 30
0.0
 40
0.1875
100
AcDbArc
 50
45.0
 51
225.0
  0
ARC
  5
20D
330
A
100
AcDbEntity
  8
TFR-TRI
  6
CONTINUOUS
 62
    30
100
AcDbCircle
 10
28.71280860900879
 20
52.16576766967773
 30
0.0
 40
0.1875
100
AcDbArc
 50
315.0
 51
134.9999999999999
  0
ARC
  5
20E
330
A
100
AcDbEntity
  8
TFR-TRI
  6
CONTINUOUS
 62
    30
100
AcDbCircle
 10
33.22106170654297
 20
37.04444885253906
 30
0.0
 40
0.1875
100
AcDbArc
 50
225.0
 51
45.0
  0
ARC
  5
20F
330
A
100
AcDbEntity
  8
TFR-TRI
  6
CONTINUOUS
 62
    30
100
AcDbCircle
 10
26.59148788452148
 20
42.24444961547852
 30
0.0
 40
0.1875
100
AcDbArc
 50
135.0
 51
315.0
  0
ARC
  5
210
330
A
100
AcDbEntity
  8
TFR-TRI
  6
CONTINUOUS
 62
    30
100
AcDbCircle
 10
34.74877548217773
 20
15.96991443634033
 30
0.0
 40
0.125
100
AcDbArc
 50
270.0
 51
90.0
  0
ARC
  5
211
330
A
100
AcDbEntity
  8
TFR-TRI
  6
CONTINUOUS
 62
    30
100
AcDbCircle
 10
26.59148788452148
 20
37.04444885253906
 30
0.0
 40
0.1875
100
AcDbArc
 50
135.0
 51
315.0
  0
ARC
  5
212
330
A
100
AcDbEntity
  8
TFR-TRI
  6
CONTINUOUS
 62
    30
100
AcDbCircle
 10
19.96280860900879
 20
44.36576843261718
 30
0.0
 40
0.1875
100
AcDbArc
 50
315.0
 51
134.9999999999999
  0
ARC
  5
213
330
A
100
AcDbEntity
  8
TFR-TRI
  6
CONTINUOUS
 62
    30
100
AcDbCircle
 10
19.96280860900879
 20
49.56576919555664
 30
0.0
 40
0.1875
100
AcDbArc
 50
315.0
 51
134.9999999999999
  0
ARC
  5
214
330
A
100
AcDbEntity
  8
TFR-TRI
  6
CONTINUOUS
 62
    30
100
AcDbCircle
 10
16.43877410888672
 20
16.59491348266601
 30
0.0
 40
0.125
100
AcDbArc
 50
270.0
 51
90.0
  0
ARC
  5
215
330
A
100
AcDbEntity
  8
TFR-TRI
  6
CONTINUOUS
 62
    30
100
AcDbCircle
 10
42.81471633911133
 20
17.31901359558105
 30
0.0
 40
0.1384000033140182
100
AcDbArc
 50
90.0
 51
102.5198440669588
  0
ARC
  5
216
330
A
100
AcDbEntity
  8
TFR-TRI
  6
CONTINUOUS
 62
    30
100
AcDbCircle
 10
22.34974098205566
 20
46.96576690673828
 30
0.0
 40
0.1875
100
AcDbArc
 50
45.0
 51
225.0
  0
ARC
  5
217
330
A
100
AcDbEntity
  8
TFR-TRI
  6
CONTINUOUS
 62
    30
100
AcDbCircle
 10
16.31377410888672
 20
17.21991348266601
 30
0.0
 40
0.125
100
AcDbArc
 50
90.0
 51
270.0
  0
ARC
  5
218
330
A
100
AcDbEntity
  8
TFR-TRI
  6
CONTINUOUS
 62
    30
100
AcDbCircle
 10
34.90627670288086
 20
15.85741424560547
 30
0.0
 40
0.125
100
AcDbArc
 50
270.0
 51
0.0
  0
ARC
  5
219
330
A
100
AcDbEntity
  8
TFR-TRI
  6
CONTINUOUS
 62
    30
100
AcDbCircle
 10
19.96280860900879
 20
28.76576805114746
 30
0.0
 40
0.1875
100
AcDbArc
 50
315.0
 51
134.9999999999999
  0
ARC
  5
21A
330
A
100
AcDbEntity
  8
TFR-TRI
  6
CONTINUOUS
 62
    30
100
AcDbCircle
 10
28.71280860900879
 20
59.96576690673828
 30
0.0
 40
0.1875
100
AcDbArc
 50
315.0
 51
134.9999999999999
  0
ARC
  5
21B
330
A
100
AcDbEntity
  8
TFR-TRI
  6
CONTINUOUS
 62
    30
100
AcDbCircle
 10
24.47106170654297
 20
29.24444770812988
 30
0.0
 40
0.1875
100
AcDbArc
 50
225.0
 51
45.0
  0
ARC
  5
21C
330
A
100
AcDbEntity
  8
TFR-TRI
  6
CONTINUOUS
 62
    30
100
AcDbCircle
 10
28.71280860900879
 20
33.96576690673828
 30
0.0
 40
0.1875
100
AcDbArc
 50
315.0
 51
134.9999999999999
  0
ARC
  5
21D
330
A
100
AcDbEntity
  8
TFR-TRI
  6
CONTINUOUS
 62
    30
100
AcDbCircle
 10
33.22106170654297
 20
57.8444480895996
 30
0.0
 40
0.1875
100
AcDbArc
 50
225.0
 51
45.0
  0
ARC
  5
21E
330
A
100
AcDbEntity
  8
TFR-TRI
  6
CONTINUOUS
 62
    30
100
AcDbCircle
 10
26.59148788452148
 20
50.04444885253906
 30
0.0
 40
0.1875
100
AcDbArc
 50
135.0
 51
315.0
  0
ARC
  5
21F
330
A
100
AcDbEntity
  8
TFR-TRI
  6
CONTINUOUS
 62
    30
100
AcDbCircle
 10
26.59148788452148
 20
26.64444923400878
 30
0.0
 40
0.1875
100
AcDbArc
 50
135.0
 51
315.0
  0
ARC
  5
220
330
A
100
AcDbEntity
  8
TFR-TRI
  6
CONTINUOUS
 62
    30
100
AcDbCircle
 10
33.22106170654297
 20
52.64444732666015
 30
0.0
 40
0.1875
100
AcDbArc
 50
225.0
 51
45.0
  0
ARC
  5
221
330
A
100
AcDbEntity
  8
TFR-TRI
  6
CONTINUOUS
 62
    30
100
AcDbCircle
 10
19.96280860900879
 20
57.36576843261719
 30
0.0
 40
0.1875
100
AcDbArc
 50
315.0
 51
134.9999999999999
  0
VIEWPORT
  5
23F
330
B
100
AcDbEntity
 67
     1
  8
0
  6
CONTINUOUS
100
AcDbViewport
 10
4.90563725490196
 20
2.25
 30
0.0
 40
10.81127450980392
 41
5.5
 68
     1
 69
     1
1001
ACAD
1000
MVIEW
1002
{
1070
    16
1010
0.0
1020
0.0
1030
0.0
1010
0.0
1020
0.0
1030
1.0
1040
0.0
1040
5.5
1040
4.90563725490196
1040
2.25
1040
50.0
1040
0.0
1040
0.0
1070
     0
1070
   100
1070
     1
1070
     1
1070
     0
1070
     0
1070
     0
1070
     0
1040
0.0
1040
0.0
1040
0.0
1040
1.0
1040
1.0
1040
0.0
1040
0.0
1070
     0
1002
{
1002
}
1002
}
  0
ENDSEC
  0
SECTION
  2
OBJECTS
  0
DICTIONARY
  5
19
330
0
100
AcDbDictionary
  3
ACAD_GROUP
350
1A
  3
ACAD_LAYOUT
350
1E
  3
ACAD_MLINESTYLE
350
1B
  3
ACAD_PLOTSETTINGS
350
22
  3
ACAD_PLOTSTYLENAME
350
1F
  3
ACAD_WIPEOUT_VARS
350
23
  3
ACDBHEADERROUNDTRIPXREC
350
2A7
  0
DICTIONARY
  5
2C8
330
A
100
AcDbDictionary
280
     1
  3
ACAD_LAYOUTSELFREF
360
2C9
  0
DICTIONARY
  5
2CA
330
B
100
AcDbDictionary
280
     1
  3
ACAD_LAYOUTSELFREF
360
2CB
  0
DICTIONARY
  5
1A
102
{ACAD_REACTORS
330
19
102
}
330
19
100
AcDbDictionary
  0
DICTIONARY
  5
1E
102
{ACAD_REACTORS
330
19
102
}
330
19
100
AcDbDictionary
  0
DICTIONARY
  5
1B
102
{ACAD_REACTORS
330
19
102
}
330
19
100
AcDbDictionary
  3
STANDARD
350
1C
  0
DICTIONARY
  5
22
102
{ACAD_REACTORS
330
19
102
}
330
19
100
AcDbDictionary
  0
ACDBDICTIONARYWDFLT
  5
1F
102
{ACAD_REACTORS
330
19
102
}
330
19
100
AcDbDictionary
281
     1
  3
Normal
350
1D
100
AcDbDictionaryWithDefault
340
1D
  0
ACAD_PROXY_OBJECT
  5
23
330
19
100
AcDbProxyObject
 90
      499
 91
      524
 93
       10
310
4042
 94
        0
1001
ACAD
1000
AcadProxyRoundTripData
1071
      521
1071
   655383
1070
     0
  0
DICTIONARY
  5
2A7
102
{ACAD_REACTORS
330
19
102
}
330
19
100
AcDbDictionary
  3
CEPSNTYPE
350
2B1
  3
DIMSTYLEDATA
350
2B5
  3
FINGERPRINTGUID
350
2B2
  3
HYPERLINKBASE
350
2AA
  3
INSUNITS
350
2B0
  3
LAYOUTDICT
350
2AC
  3
LWETCUNION
350
2AF
  3
PLOTSETDICT
350
2AD
  3
PLOTSTYLNAMDICT
350
2AE
  3
PSVPSCALE
350
2B4
  3
PUCSBASE
350
2B8
  3
PUCSORGBACK
350
2BE
  3
PUCSORGBOTTOM
350
2BA
  3
PUCSORGFRONT
350
2BD
  3
PUCSORGLEFT
350
2BB
  3
PUCSORGRIGHT
350
2BC
  3
PUCSORGTOP
350
2B9
  3
PUCSORTHOREF
350
2B6
  3
PUCSORTHOVIEW
350
2B7
  3
STYLESHEET
350
2AB
  3
TSTACKALIGN
350
2A8
  3
TSTACKSIZE
350
2A9
  3
UCSBASE
350
2C1
  3
UCSORGBACK
350
2C7
  3
UCSORGBOTTOM
350
2C3
  3
UCSORGFRONT
350
2C6
  3
UCSORGLEFT
350
2C4
  3
UCSORGRIGHT
350
2C5
  3
UCSORGTOP
350
2C2
  3
UCSORTHOREF
350
2BF
  3
UCSORTHOVIEW
350
2C0
  3
VERSIONGUID
350
2B3
  0
XRECORD
  5
2C9
102
{ACAD_REACTORS
330
2C8
102
}
330
2C8
100
AcDbXrecord
340
A
  0
XRECORD
  5
2CB
102
{ACAD_REACTORS
330
2CA
102
}
330
2CA
100
AcDbXrecord
340
B
  0
MLINESTYLE
  5
1C
102
{ACAD_REACTORS
330
1B
102
}
330
1B
100
AcDbMlineStyle
  2
STANDARD
 70
     0
  3

 62
     0
 51
90.0
 52
90.0
 71
     2
 49
0.5
 62
   256
  6
BYLAYER
 49
-0.5
 62
   256
  6
BYLAYER
  0
ACDBPLACEHOLDER
  5
1D
102
{ACAD_REACTORS
330
1F
102
}
330
1F
100
AcDbPlaceHolder
280
     0
  0
XRECORD
  5
2B1
102
{ACAD_REACTORS
330
2A7
102
}
330
2A7
100
AcDbXrecord
 90
        0
  0
XRECORD
  5
2B5
102
{ACAD_REACTORS
330
2A7
102
}
330
2A7
100
AcDbXrecord
1000
DSTYLE
1002
{
1070
   278
 70
     0
1070
   371
 70
     0
1070
   372
 70
     0
1002
}
  0
XRECORD
  5
2B2
102
{ACAD_REACTORS
330
2A7
102
}
330
2A7
100
AcDbXrecord
  1

  0
XRECORD
  5
2AA
102
{ACAD_REACTORS
330
2A7
102
}
330
2A7
100
AcDbXrecord
  1

  0
XRECORD
  5
2B0
102
{ACAD_REACTORS
330
2A7
102
}
330
2A7
100
AcDbXrecord
 90
        0
  0
XRECORD
  5
2AC
102
{ACAD_REACTORS
330
2A7
102
}
330
2A7
100
AcDbXrecord
340
1E
  0
XRECORD
  5
2AF
102
{ACAD_REACTORS
330
2A7
102
}
330
2A7
100
AcDbXrecord
 90
    10752
  0
XRECORD
  5
2AD
102
{ACAD_REACTORS
330
2A7
102
}
330
2A7
100
AcDbXrecord
340
22
  0
XRECORD
  5
2AE
102
{ACAD_REACTORS
330
2A7
102
}
330
2A7
100
AcDbXrecord
340
1F
  0
XRECORD
  5
2B4
102
{ACAD_REACTORS
330
2A7
102
}
330
2A7
100
AcDbXrecord
 40
0.0
  0
XRECORD
  5
2B8
102
{ACAD_REACTORS
330
2A7
102
}
330
2A7
100
AcDbXrecord
340
0
  0
XRECORD
  5
2BE
102
{ACAD_REACTORS
330
2A7
102
}
330
2A7
100
AcDbXrecord
 10
0.0
 20
0.0
 30
0.0
  0
XRECORD
  5
2BA
102
{ACAD_REACTORS
330
2A7
102
}
330
2A7
100
AcDbXrecord
 10
0.0
 20
0.0
 30
0.0
  0
XRECORD
  5
2BD
102
{ACAD_REACTORS
330
2A7
102
}
330
2A7
100
AcDbXrecord
 10
0.0
 20
0.0
 30
0.0
  0
XRECORD
  5
2BB
102
{ACAD_REACTORS
330
2A7
102
}
330
2A7
100
AcDbXrecord
 10
0.0
 20
0.0
 30
0.0
  0
XRECORD
  5
2BC
102
{ACAD_REACTORS
330
2A7
102
}
330
2A7
100
AcDbXrecord
 10
0.0
 20
0.0
 30
0.0
  0
XRECORD
  5
2B9
102
{ACAD_REACTORS
330
2A7
102
}
330
2A7
100
AcDbXrecord
 10
0.0
 20
0.0
 30
0.0
  0
XRECORD
  5
2B6
102
{ACAD_REACTORS
330
2A7
102
}
330
2A7
100
AcDbXrecord
340
0
  0
XRECORD
  5
2B7
102
{ACAD_REACTORS
330
2A7
102
}
330
2A7
100
AcDbXrecord
 70
     0
  0
XRECORD
  5
2AB
102
{ACAD_REACTORS
330
2A7
102
}
330
2A7
100
AcDbXrecord
  1

  0
XRECORD
  5
2A8
102
{ACAD_REACTORS
330
2A7
102
}
330
2A7
100
AcDbXrecord
 90
        1
  0
XRECORD
  5
2A9
102
{ACAD_REACTORS
330
2A7
102
}
330
2A7
100
AcDbXrecord
 90
       70
  0
XRECORD
  5
2C1
102
{ACAD_REACTORS
330
2A7
102
}
330
2A7
100
AcDbXrecord
340
0
  0
XRECORD
  5
2C7
102
{ACAD_REACTORS
330
2A7
102
}
330
2A7
100
AcDbXrecord
 10
0.0
 20
0.0
 30
0.0
  0
XRECORD
  5
2C3
102
{ACAD_REACTORS
330
2A7
102
}
330
2A7
100
AcDbXrecord
 10
0.0
 20
0.0
 30
0.0
  0
XRECORD
  5
2C6
102
{ACAD_REACTORS
330
2A7
102
}
330
2A7
100
AcDbXrecord
 10
0.0
 20
0.0
 30
0.0
  0
XRECORD
  5
2C4
102
{ACAD_REACTORS
330
2A7
102
}
330
2A7
100
AcDbXrecord
 10
0.0
 20
0.0
 30
0.0
  0
XRECORD
  5
2C5
102
{ACAD_REACTORS
330
2A7
102
}
330
2A7
100
AcDbXrecord
 10
0.0
 20
0.0
 30
0.0
  0
XRECORD
  5
2C2
102
{ACAD_REACTORS
330
2A7
102
}
330
2A7
100
AcDbXrecord
 10
0.0
 20
0.0
 30
0.0
  0
XRECORD
  5
2BF
102
{ACAD_REACTORS
330
2A7
102
}
330
2A7
100
AcDbXrecord
340
0
  0
XRECORD
  5
2C0
102
{ACAD_REACTORS
330
2A7
102
}
330
2A7
100
AcDbXrecord
 70
     1
  0
XRECORD
  5
2B3
102
{ACAD_REACTORS
330
2A7
102
}
330
2A7
100
AcDbXrecord
  1
{D7C31A4A-BEF3-4353-8025-72284215F6BC}
  0
ENDSEC
  0
EOF
