  0
SECTION
  2
HEADER
  9
$ACADVER
  1
AC1012
  9
$DWGCODEPAGE
  3
ANSI_1252
  9
$INSBASE
 10
0.0
 20
0.0
 30
0.0
  9
$EXTMIN
 10
-1.828956717358426
 20
-0.2738953388064829
 30
-0.0000000349181948
  9
$EXTMAX
 10
1.883989328705112
 20
2.521144807031173
 30
0.0000000814935746
  9
$LIMMIN
 10
0.0
 20
0.0
  9
$LIMMAX
 10
12.0
 20
9.0
  9
$ORTHOMODE
 70
     0
  9
$REGENMODE
 70
     1
  9
$FILLMODE
 70
     1
  9
$QTEXTMODE
 70
     0
  9
$MIRRTEXT
 70
     1
  9
$DRAGMODE
 70
     2
  9
$LTSCALE
 40
1.0
  9
$OSMODE
 70
    33
  9
$ATTMODE
 70
     1
  9
$TEXTSIZE
 40
0.2
  9
$TRACEWID
 40
0.05
  9
$TEXTSTYLE
  7
STANDARD
  9
$CLAYER
  8
0
  9
$CELTYPE
  6
BYLAYER
  9
$CECOLOR
 62
   256
  9
$CELTSCALE
 40
1.0
  9
$DELOBJ
 70
     1
  9
$DISPSILH
 70
     0
  9
$DIMSCALE
 40
1.0
  9
$DIMASZ
 40
0.18
  9
$DIMEXO
 40
0.0625
  9
$DIMDLI
 40
0.38
  9
$DIMRND
 40
0.0
  9
$DIMDLE
 40
0.0
  9
$DIMEXE
 40
0.18
  9
$DIMTP
 40
0.0
  9
$DIMTM
 40
0.0
  9
$DIMTXT
 40
0.18
  9
$DIMCEN
 40
0.09
  9
$DIMTSZ
 40
0.0
  9
$DIMTOL
 70
     0
  9
$DIMLIM
 70
     0
  9
$DIMTIH
 70
     1
  9
$DIMTOH
 70
     1
  9
$DIMSE1
 70
     0
  9
$DIMSE2
 70
     0
  9
$DIMTAD
 70
     0
  9
$DIMZIN
 70
     0
  9
$DIMBLK
  1

  9
$DIMASO
 70
     1
  9
$DIMSHO
 70
     1
  9
$DIMPOST
  1

  9
$DIMAPOST
  1

  9
$DIMALT
 70
     0
  9
$DIMALTD
 70
     2
  9
$DIMALTF
 40
25.4
  9
$DIMLFAC
 40
1.0
  9
$DIMTOFL
 70
     0
  9
$DIMTVP
 40
0.0
  9
$DIMTIX
 70
     0
  9
$DIMSOXD
 70
     0
  9
$DIMSAH
 70
     0
  9
$DIMBLK1
  1

  9
$DIMBLK2
  1

  9
$DIMSTYLE
  2
STANDARD
  9
$DIMCLRD
 70
     0
  9
$DIMCLRE
 70
     0
  9
$DIMCLRT
 70
     0
  9
$DIMTFAC
 40
1.0
  9
$DIMGAP
 40
0.09
  9
$DIMJUST
 70
     0
  9
$DIMSD1
 70
     0
  9
$DIMSD2
 70
     0
  9
$DIMTOLJ
 70
     1
  9
$DIMTZIN
 70
     0
  9
$DIMALTZ
 70
     0
  9
$DIMALTTZ
 70
     0
  9
$DIMFIT
 70
     5
  9
$DIMUPT
 70
     0
  9
$DIMUNIT
 70
     2
  9
$DIMDEC
 70
     4
  9
$DIMTDEC
 70
     4
  9
$DIMALTU
 70
     2
  9
$DIMALTTD
 70
     2
  9
$DIMTXSTY
  7
STANDARD
  9
$DIMAUNIT
 70
     0
  9
$LUNITS
 70
     2
  9
$LUPREC
 70
     4
  9
$SKETCHINC
 40
0.1
  9
$FILLETRAD
 40
0.0
  9
$AUNITS
 70
     0
  9
$AUPREC
 70
     0
  9
$MENU
  1
acad
  9
$ELEVATION
 40
0.0
  9
$PELEVATION
 40
0.0
  9
$THICKNESS
 40
0.0
  9
$LIMCHECK
 70
     0
  9
$BLIPMODE
 70
     0
  9
$CHAMFERA
 40
0.0
  9
$CHAMFERB
 40
0.0
  9
$CHAMFERC
 40
0.0
  9
$CHAMFERD
 40
0.0
  9
$SKPOLY
 70
     0
  9
$TDCREATE
 40
2452226.573298611
  9
$TDUPDATE
 40
2452347.373835185
  9
$TDINDWG
 40
0.0017192940
  9
$TDUSRTIMER
 40
0.0017192940
  9
$USRTIMER
 70
     1
  9
$ANGBASE
 50
0.0
  9
$ANGDIR
 70
     0
  9
$PDMODE
 70
     0
  9
$PDSIZE
 40
0.0
  9
$PLINEWID
 40
0.0
  9
$COORDS
 70
     2
  9
$SPLFRAME
 70
     0
  9
$SPLINETYPE
 70
     6
  9
$SPLINESEGS
 70
     8
  9
$ATTDIA
 70
     0
  9
$ATTREQ
 70
     1
  9
$HANDLING
 70
  4097
  9
$HANDSEED
  5
3213
  9
$SURFTAB1
 70
     6
  9
$SURFTAB2
 70
     6
  9
$SURFTYPE
 70
     6
  9
$SURFU
 70
     6
  9
$SURFV
 70
     6
  9
$UCSNAME
  2

  9
$UCSORG
 10
0.0
 20
0.0
 30
0.0
  9
$UCSXDIR
 10
1.0
 20
0.0
 30
0.0
  9
$UCSYDIR
 10
0.0
 20
1.0
 30
0.0
  9
$PUCSNAME
  2

  9
$PUCSORG
 10
0.0
 20
0.0
 30
0.0
  9
$PUCSXDIR
 10
1.0
 20
0.0
 30
0.0
  9
$PUCSYDIR
 10
0.0
 20
1.0
 30
0.0
  9
$USERI1
 70
     0
  9
$USERI2
 70
     0
  9
$USERI3
 70
     0
  9
$USERI4
 70
     0
  9
$USERI5
 70
     0
  9
$USERR1
 40
0.0
  9
$USERR2
 40
0.0
  9
$USERR3
 40
0.0
  9
$USERR4
 40
0.0
  9
$USERR5
 40
0.0
  9
$WORLDVIEW
 70
     1
  9
$SHADEDGE
 70
     3
  9
$SHADEDIF
 70
    70
  9
$TILEMODE
 70
     1
  9
$MAXACTVP
 70
    16
  9
$PINSBASE
 10
0.0
 20
0.0
 30
0.0
  9
$PLIMCHECK
 70
     0
  9
$PEXTMIN
 10
1.000000000000000E+20
 20
1.000000000000000E+20
 30
1.000000000000000E+20
  9
$PEXTMAX
 10
-1.000000000000000E+20
 20
-1.000000000000000E+20
 30
-1.000000000000000E+20
  9
$PLIMMIN
 10
0.0
 20
0.0
  9
$PLIMMAX
 10
12.0
 20
9.0
  9
$UNITMODE
 70
     0
  9
$VISRETAIN
 70
     0
  9
$PLINEGEN
 70
     0
  9
$PSLTSCALE
 70
     1
  9
$TREEDEPTH
 70
  3020
  9
$PICKSTYLE
 70
     1
  9
$CMLSTYLE
  2
STANDARD
  9
$CMLJUST
 70
     0
  9
$CMLSCALE
 40
1.0
  9
$SAVEIMAGES
 70
     1
  0
ENDSEC
  0
SECTION
  2
CLASSES
  0
CLASS
  1
ACDBDICTIONARYWDFLT
  2
AcDbDictionaryWithDefault
  3
AutoCAD 2000
 90
    32768
280
     0
281
     0
  0
CLASS
  1
ACDBPLACEHOLDER
  2
AcDbPlaceHolder
  3
AutoCAD 2000
 90
    32768
280
     0
281
     0
  0
CLASS
  1
LAYOUT
  2
AcDbLayout
  3
AutoCAD 2000
 90
    32768
280
     0
281
     0
  0
CLASS
  1
LONG_TRANSACTION
  2
AcDbLongTransaction
  3
AutoCAD 2000
 90
    32768
280
     0
281
     0
  0
CLASS
  1
LWPOLYLINE
  2
AcDbPolyline
  3
AutoCAD 2000
 90
    32768
280
     0
281
     1
  0
CLASS
  1
HATCH
  2
AcDbHatch
  3
AutoCAD 2000
 90
    32768
280
     0
281
     1
  0
CLASS
  1
XRECORD
  2
AcDbXrecord
  3
AutoCAD 2000
 90
    32768
280
     0
281
     0
  0
CLASS
  1
LONG_TRANSACTION
  2
AcDbLongTransaction
  3
AutoCAD 2000
 90
    32768
280
     0
281
     0
  0
CLASS
  1
LWPOLYLINE
  2
AcDbPolyline
  3
AutoCAD 2000
 90
    32768
280
     0
281
     1
  0
CLASS
  1
HATCH
  2
AcDbHatch
  3
AutoCAD 2000
 90
    32768
280
     0
281
     1
  0
CLASS
  1
XRECORD
  2
AcDbXrecord
  3
AutoCAD 2000
 90
    32768
280
     0
281
     0
  0
ENDSEC
  0
SECTION
  2
TABLES
  0
TABLE
  2
VPORT
  5
8
330
0
100
AcDbSymbolTable
 70
     3
  0
VPORT
  5
3210
330
8
100
AcDbSymbolTableRecord
100
AcDbViewportTableRecord
  2
*ACTIVE
 70
     0
 10
0.0
 20
0.0
 11
1.0
 21
1.0
 12
0.027516305673343
 22
1.123624734112345
 13
0.0
 23
0.0
 14
1.0
 24
1.0
 15
0.0
 25
0.0
 16
0.0
 26
0.0
 36
1.0
 17
0.0
 27
0.0
 37
0.0
 40
2.817164474168825
 41
1.610303830911492
 42
50.0
 43
0.0
 44
0.0
 50
0.0
 51
0.0
 71
     0
 72
   100
 73
     1
 74
     1
 75
     0
 76
     0
 77
     0
 78
     0
  0
ENDTAB
  0
TABLE
  2
LTYPE
  5
5
330
0
100
AcDbSymbolTable
 70
    25
  0
LTYPE
  5
13
330
5
100
AcDbSymbolTableRecord
100
AcDbLinetypeTableRecord
  2
BYBLOCK
 70
     0
  3

 72
    65
 73
     0
 40
0.0
  0
LTYPE
  5
14
330
5
100
AcDbSymbolTableRecord
100
AcDbLinetypeTableRecord
  2
BYLAYER
 70
     0
  3

 72
    65
 73
     0
 40
0.0
  0
LTYPE
  5
15
330
5
100
AcDbSymbolTableRecord
100
AcDbLinetypeTableRecord
  2
CONTINUOUS
 70
     0
  3
Solid line
 72
    65
 73
     0
 40
0.0
  0
LTYPE
  5
22
330
5
100
AcDbSymbolTableRecord
100
AcDbLinetypeTableRecord
  2
BORDER
 70
     0
  3
__ __ . __ __ . __ __ . __ __ . __ __ . __ __ .
 72
    65
 73
     6
 40
1.75
 49
0.5
 74
     0
 49
-0.25
 74
     0
 49
0.5
 74
     0
 49
-0.25
 74
     0
 49
0.5
 74
     0
 49
-0.25
 74
     0
  0
LTYPE
  5
23
330
5
100
AcDbSymbolTableRecord
100
AcDbLinetypeTableRecord
  2
BORDER2
 70
     0
  3
__.__.__.__.__.__.__.__.__.__.__.__.__.__.__.__
 72
    65
 73
     6
 40
0.875
 49
0.25
 74
     0
 49
-0.125
 74
     0
 49
0.25
 74
     0
 49
-0.125
 74
     0
 49
0.25
 74
     0
 49
-0.125
 74
     0
  0
LTYPE
  5
24
330
5
100
AcDbSymbolTableRecord
100
AcDbLinetypeTableRecord
  2
BORDERX2
 70
     0
  3
____  ____  .  ____  ____  .  
 72
    65
 73
     6
 40
3.5
 49
1.0
 74
     0
 49
-0.5
 74
     0
 49
1.0
 74
     0
 49
-0.5
 74
     0
 49
1.0
 74
     0
 49
-0.5
 74
     0
  0
LTYPE
  5
25
330
5
100
AcDbSymbolTableRecord
100
AcDbLinetypeTableRecord
  2
CENTER
 70
     0
  3
____ _ ____ _ ____ _ ____ _ ____ _ ____ _ ____
 72
    65
 73
     4
 40
2.0
 49
1.25
 74
     0
 49
-0.25
 74
     0
 49
0.25
 74
     0
 49
-0.25
 74
     0
  0
LTYPE
  5
26
330
5
100
AcDbSymbolTableRecord
100
AcDbLinetypeTableRecord
  2
CENTER2
 70
     0
  3
____ _ ____ _ ____ _ ____ _ ____ _ ____ _ ____
 72
    65
 73
     4
 40
1.125
 49
0.75
 74
     0
 49
-0.125
 74
     0
 49
0.125
 74
     0
 49
-0.125
 74
     0
  0
LTYPE
  5
27
330
5
100
AcDbSymbolTableRecord
100
AcDbLinetypeTableRecord
  2
CENTERX2
 70
     0
  3
________  __  ________  __  ________  __  
 72
    65
 73
     4
 40
4.0
 49
2.5
 74
     0
 49
-0.5
 74
     0
 49
0.5
 74
     0
 49
-0.5
 74
     0
  0
LTYPE
  5
28
330
5
100
AcDbSymbolTableRecord
100
AcDbLinetypeTableRecord
  2
DASHDOT
 70
     0
  3
__ . __ . __ . __ . __ . __ . __ . 
 72
    65
 73
     4
 40
1.0
 49
0.5
 74
     0
 49
-0.25
 74
     0
 49
0.0
 74
     0
 49
-0.25
 74
     0
  0
LTYPE
  5
29
330
5
100
AcDbSymbolTableRecord
100
AcDbLinetypeTableRecord
  2
DASHDOT2
 70
     0
  3
_._._._._._._._._._._._._._._._.
 72
    65
 73
     4
 40
0.5
 49
0.25
 74
     0
 49
-0.125
 74
     0
 49
0.0
 74
     0
 49
-0.125
 74
     0
  0
LTYPE
  5
2A
330
5
100
AcDbSymbolTableRecord
100
AcDbLinetypeTableRecord
  2
DASHDOTX2
 70
     0
  3
____  .  ____  .  ____  .  ____  .  
 72
    65
 73
     4
 40
2.0
 49
1.0
 74
     0
 49
-0.5
 74
     0
 49
0.0
 74
     0
 49
-0.5
 74
     0
  0
LTYPE
  5
2B
330
5
100
AcDbSymbolTableRecord
100
AcDbLinetypeTableRecord
  2
DASHED
 70
     0
  3
__ __ __ __ __ __ __ __ __ __ __ __ 
 72
    65
 73
     2
 40
0.75
 49
0.5
 74
     0
 49
-0.25
 74
     0
  0
LTYPE
  5
2C
330
5
100
AcDbSymbolTableRecord
100
AcDbLinetypeTableRecord
  2
DASHED2
 70
     0
  3
_ _ _ _ _ _ _ _ _ _ _ _ _ _ _ _ _ _ 
 72
    65
 73
     2
 40
0.375
 49
0.25
 74
     0
 49
-0.125
 74
     0
  0
LTYPE
  5
2D
330
5
100
AcDbSymbolTableRecord
100
AcDbLinetypeTableRecord
  2
DASHEDX2
 70
     0
  3
____  ____  ____  ____  ____  ____  
 72
    65
 73
     2
 40
1.5
 49
1.0
 74
     0
 49
-0.5
 74
     0
  0
LTYPE
  5
2E
330
5
100
AcDbSymbolTableRecord
100
AcDbLinetypeTableRecord
  2
DIVIDE
 70
     0
  3
____ . . ____ . . ____ . . ____ . . 
 72
    65
 73
     6
 40
1.25
 49
0.5
 74
     0
 49
-0.25
 74
     0
 49
0.0
 74
     0
 49
-0.25
 74
     0
 49
0.0
 74
     0
 49
-0.25
 74
     0
  0
LTYPE
  5
2F
330
5
100
AcDbSymbolTableRecord
100
AcDbLinetypeTableRecord
  2
DIVIDE2
 70
     0
  3
__..__..__..__..__..__..__..__..__..
 72
    65
 73
     6
 40
0.625
 49
0.25
 74
     0
 49
-0.125
 74
     0
 49
0.0
 74
     0
 49
-0.125
 74
     0
 49
0.0
 74
     0
 49
-0.125
 74
     0
  0
LTYPE
  5
30
330
5
100
AcDbSymbolTableRecord
100
AcDbLinetypeTableRecord
  2
DIVIDEX2
 70
     0
  3
________  .  .  ________  .  .  ________  .  . 
 72
    65
 73
     6
 40
2.5
 49
1.0
 74
     0
 49
-0.5
 74
     0
 49
0.0
 74
     0
 49
-0.5
 74
     0
 49
0.0
 74
     0
 49
-0.5
 74
     0
  0
LTYPE
  5
31
330
5
100
AcDbSymbolTableRecord
100
AcDbLinetypeTableRecord
  2
DOT
 70
     0
  3
. . . . . . . . . . . . . . . . . . 
 72
    65
 73
     2
 40
0.25
 49
0.0
 74
     0
 49
-0.25
 74
     0
  0
LTYPE
  5
32
330
5
100
AcDbSymbolTableRecord
100
AcDbLinetypeTableRecord
  2
DOT2
 70
     0
  3
....................................
 72
    65
 73
     2
 40
0.125
 49
0.0
 74
     0
 49
-0.125
 74
     0
  0
LTYPE
  5
33
330
5
100
AcDbSymbolTableRecord
100
AcDbLinetypeTableRecord
  2
DOTX2
 70
     0
  3
.  .  .  .  .  .  .  .  .  .  .  .  .  
 72
    65
 73
     2
 40
0.5
 49
0.0
 74
     0
 49
-0.5
 74
     0
  0
LTYPE
  5
34
330
5
100
AcDbSymbolTableRecord
100
AcDbLinetypeTableRecord
  2
HIDDEN
 70
     0
  3
__ __ __ __ __ __ __ __ __ __ __ __ 
 72
    65
 73
     2
 40
0.375
 49
0.25
 74
     0
 49
-0.125
 74
     0
  0
LTYPE
  5
35
330
5
100
AcDbSymbolTableRecord
100
AcDbLinetypeTableRecord
  2
HIDDEN2
 70
     0
  3
_ _ _ _ _ _ _ _ _ _ _ _ _ _ _ _ _ _ 
 72
    65
 73
     2
 40
0.1875
 49
0.125
 74
     0
 49
-0.0625
 74
     0
  0
LTYPE
  5
36
330
5
100
AcDbSymbolTableRecord
100
AcDbLinetypeTableRecord
  2
HIDDENX2
 70
     0
  3
____ ____ ____ ____ ____ ____ ____ 
 72
    65
 73
     2
 40
0.75
 49
0.5
 74
     0
 49
-0.25
 74
     0
  0
LTYPE
  5
37
330
5
100
AcDbSymbolTableRecord
100
AcDbLinetypeTableRecord
  2
PHANTOM
 70
     0
  3
______  __  __  ______  __  __  
 72
    65
 73
     6
 40
2.5
 49
1.25
 74
     0
 49
-0.25
 74
     0
 49
0.25
 74
     0
 49
-0.25
 74
     0
 49
0.25
 74
     0
 49
-0.25
 74
     0
  0
LTYPE
  5
38
330
5
100
AcDbSymbolTableRecord
100
AcDbLinetypeTableRecord
  2
PHANTOM2
 70
     0
  3
___ _ _ ___ _ _ ___ _ _ ___ _ _ 
 72
    65
 73
     6
 40
1.25
 49
0.625
 74
     0
 49
-0.125
 74
     0
 49
0.125
 74
     0
 49
-0.125
 74
     0
 49
0.125
 74
     0
 49
-0.125
 74
     0
  0
LTYPE
  5
39
330
5
100
AcDbSymbolTableRecord
100
AcDbLinetypeTableRecord
  2
PHANTOMX2
 70
     0
  3
___ _ _ ___ _ _ ___ _ _ ___ _ _ 
 72
    65
 73
     6
 40
5.0
 49
2.5
 74
     0
 49
-0.5
 74
     0
 49
0.5
 74
     0
 49
-0.5
 74
     0
 49
0.5
 74
     0
 49
-0.5
 74
     0
  0
ENDTAB
  0
TABLE
  2
LAYER
  5
2
330
0
100
AcDbSymbolTable
 70
   256
  0
LAYER
  5
10
330
2
100
AcDbSymbolTableRecord
100
AcDbLayerTableRecord
  2
0
 70
     0
 62
     7
  6
CONTINUOUS
  0
LAYER
  5
3A
330
2
100
AcDbSymbolTableRecord
100
AcDbLayerTableRecord
  2
1
 70
     0
 62
     1
  6
CONTINUOUS
  0
LAYER
  5
3B
330
2
100
AcDbSymbolTableRecord
100
AcDbLayerTableRecord
  2
2
 70
     0
 62
     2
  6
CONTINUOUS
  0
LAYER
  5
3C
330
2
100
AcDbSymbolTableRecord
100
AcDbLayerTableRecord
  2
3
 70
     0
 62
     3
  6
CONTINUOUS
  0
LAYER
  5
3D
330
2
100
AcDbSymbolTableRecord
100
AcDbLayerTableRecord
  2
4
 70
     0
 62
     4
  6
CONTINUOUS
  0
LAYER
  5
3E
330
2
100
AcDbSymbolTableRecord
100
AcDbLayerTableRecord
  2
5
 70
     0
 62
     5
  6
CONTINUOUS
  0
LAYER
  5
3F
330
2
100
AcDbSymbolTableRecord
100
AcDbLayerTableRecord
  2
6
 70
     0
 62
     6
  6
CONTINUOUS
  0
LAYER
  5
40
330
2
100
AcDbSymbolTableRecord
100
AcDbLayerTableRecord
  2
7
 70
     0
 62
     7
  6
CONTINUOUS
  0
LAYER
  5
41
330
2
100
AcDbSymbolTableRecord
100
AcDbLayerTableRecord
  2
8
 70
     0
 62
     8
  6
CONTINUOUS
  0
LAYER
  5
42
330
2
100
AcDbSymbolTableRecord
100
AcDbLayerTableRecord
  2
9
 70
     0
 62
     9
  6
CONTINUOUS
  0
LAYER
  5
43
330
2
100
AcDbSymbolTableRecord
100
AcDbLayerTableRecord
  2
10
 70
     0
 62
    10
  6
CONTINUOUS
  0
LAYER
  5
44
330
2
100
AcDbSymbolTableRecord
100
AcDbLayerTableRecord
  2
11
 70
     0
 62
    11
  6
CONTINUOUS
  0
LAYER
  5
45
330
2
100
AcDbSymbolTableRecord
100
AcDbLayerTableRecord
  2
12
 70
     0
 62
    12
  6
CONTINUOUS
  0
LAYER
  5
46
330
2
100
AcDbSymbolTableRecord
100
AcDbLayerTableRecord
  2
13
 70
     0
 62
    13
  6
CONTINUOUS
  0
LAYER
  5
47
330
2
100
AcDbSymbolTableRecord
100
AcDbLayerTableRecord
  2
14
 70
     0
 62
    14
  6
CONTINUOUS
  0
LAYER
  5
48
330
2
100
AcDbSymbolTableRecord
100
AcDbLayerTableRecord
  2
15
 70
     0
 62
    15
  6
CONTINUOUS
  0
LAYER
  5
49
330
2
100
AcDbSymbolTableRecord
100
AcDbLayerTableRecord
  2
16
 70
     0
 62
    16
  6
CONTINUOUS
  0
LAYER
  5
4A
330
2
100
AcDbSymbolTableRecord
100
AcDbLayerTableRecord
  2
17
 70
     0
 62
    17
  6
CONTINUOUS
  0
LAYER
  5
4B
330
2
100
AcDbSymbolTableRecord
100
AcDbLayerTableRecord
  2
18
 70
     0
 62
    18
  6
CONTINUOUS
  0
LAYER
  5
4C
330
2
100
AcDbSymbolTableRecord
100
AcDbLayerTableRecord
  2
19
 70
     0
 62
    19
  6
CONTINUOUS
  0
LAYER
  5
4D
330
2
100
AcDbSymbolTableRecord
100
AcDbLayerTableRecord
  2
20
 70
     0
 62
    20
  6
CONTINUOUS
  0
LAYER
  5
4E
330
2
100
AcDbSymbolTableRecord
100
AcDbLayerTableRecord
  2
21
 70
     0
 62
    21
  6
CONTINUOUS
  0
LAYER
  5
4F
330
2
100
AcDbSymbolTableRecord
100
AcDbLayerTableRecord
  2
22
 70
     0
 62
    22
  6
CONTINUOUS
  0
LAYER
  5
50
330
2
100
AcDbSymbolTableRecord
100
AcDbLayerTableRecord
  2
23
 70
     0
 62
    23
  6
CONTINUOUS
  0
LAYER
  5
51
330
2
100
AcDbSymbolTableRecord
100
AcDbLayerTableRecord
  2
24
 70
     0
 62
    24
  6
CONTINUOUS
  0
LAYER
  5
52
330
2
100
AcDbSymbolTableRecord
100
AcDbLayerTableRecord
  2
25
 70
     0
 62
    25
  6
CONTINUOUS
  0
LAYER
  5
53
330
2
100
AcDbSymbolTableRecord
100
AcDbLayerTableRecord
  2
26
 70
     0
 62
    26
  6
CONTINUOUS
  0
LAYER
  5
54
330
2
100
AcDbSymbolTableRecord
100
AcDbLayerTableRecord
  2
27
 70
     0
 62
    27
  6
CONTINUOUS
  0
LAYER
  5
55
330
2
100
AcDbSymbolTableRecord
100
AcDbLayerTableRecord
  2
28
 70
     0
 62
    28
  6
CONTINUOUS
  0
LAYER
  5
56
330
2
100
AcDbSymbolTableRecord
100
AcDbLayerTableRecord
  2
29
 70
     0
 62
    29
  6
CONTINUOUS
  0
LAYER
  5
57
330
2
100
AcDbSymbolTableRecord
100
AcDbLayerTableRecord
  2
30
 70
     0
 62
    30
  6
CONTINUOUS
  0
LAYER
  5
58
330
2
100
AcDbSymbolTableRecord
100
AcDbLayerTableRecord
  2
31
 70
     0
 62
    31
  6
CONTINUOUS
  0
LAYER
  5
59
330
2
100
AcDbSymbolTableRecord
100
AcDbLayerTableRecord
  2
32
 70
     0
 62
    32
  6
CONTINUOUS
  0
LAYER
  5
5A
330
2
100
AcDbSymbolTableRecord
100
AcDbLayerTableRecord
  2
33
 70
     0
 62
    33
  6
CONTINUOUS
  0
LAYER
  5
5B
330
2
100
AcDbSymbolTableRecord
100
AcDbLayerTableRecord
  2
34
 70
     0
 62
    34
  6
CONTINUOUS
  0
LAYER
  5
5C
330
2
100
AcDbSymbolTableRecord
100
AcDbLayerTableRecord
  2
35
 70
     0
 62
    35
  6
CONTINUOUS
  0
LAYER
  5
5D
330
2
100
AcDbSymbolTableRecord
100
AcDbLayerTableRecord
  2
36
 70
     0
 62
    36
  6
CONTINUOUS
  0
LAYER
  5
5E
330
2
100
AcDbSymbolTableRecord
100
AcDbLayerTableRecord
  2
37
 70
     0
 62
    37
  6
CONTINUOUS
  0
LAYER
  5
5F
330
2
100
AcDbSymbolTableRecord
100
AcDbLayerTableRecord
  2
38
 70
     0
 62
    38
  6
CONTINUOUS
  0
LAYER
  5
60
330
2
100
AcDbSymbolTableRecord
100
AcDbLayerTableRecord
  2
39
 70
     0
 62
    39
  6
CONTINUOUS
  0
LAYER
  5
61
330
2
100
AcDbSymbolTableRecord
100
AcDbLayerTableRecord
  2
40
 70
     0
 62
    40
  6
CONTINUOUS
  0
LAYER
  5
62
330
2
100
AcDbSymbolTableRecord
100
AcDbLayerTableRecord
  2
41
 70
     0
 62
    41
  6
CONTINUOUS
  0
LAYER
  5
63
330
2
100
AcDbSymbolTableRecord
100
AcDbLayerTableRecord
  2
42
 70
     0
 62
    42
  6
CONTINUOUS
  0
LAYER
  5
64
330
2
100
AcDbSymbolTableRecord
100
AcDbLayerTableRecord
  2
43
 70
     0
 62
    43
  6
CONTINUOUS
  0
LAYER
  5
65
330
2
100
AcDbSymbolTableRecord
100
AcDbLayerTableRecord
  2
44
 70
     0
 62
    44
  6
CONTINUOUS
  0
LAYER
  5
66
330
2
100
AcDbSymbolTableRecord
100
AcDbLayerTableRecord
  2
45
 70
     0
 62
    45
  6
CONTINUOUS
  0
LAYER
  5
67
330
2
100
AcDbSymbolTableRecord
100
AcDbLayerTableRecord
  2
46
 70
     0
 62
    46
  6
CONTINUOUS
  0
LAYER
  5
68
330
2
100
AcDbSymbolTableRecord
100
AcDbLayerTableRecord
  2
47
 70
     0
 62
    47
  6
CONTINUOUS
  0
LAYER
  5
69
330
2
100
AcDbSymbolTableRecord
100
AcDbLayerTableRecord
  2
48
 70
     0
 62
    48
  6
CONTINUOUS
  0
LAYER
  5
6A
330
2
100
AcDbSymbolTableRecord
100
AcDbLayerTableRecord
  2
49
 70
     0
 62
    49
  6
CONTINUOUS
  0
LAYER
  5
6B
330
2
100
AcDbSymbolTableRecord
100
AcDbLayerTableRecord
  2
50
 70
     0
 62
    50
  6
CONTINUOUS
  0
LAYER
  5
6C
330
2
100
AcDbSymbolTableRecord
100
AcDbLayerTableRecord
  2
51
 70
     0
 62
    51
  6
CONTINUOUS
  0
LAYER
  5
6D
330
2
100
AcDbSymbolTableRecord
100
AcDbLayerTableRecord
  2
52
 70
     0
 62
    52
  6
CONTINUOUS
  0
LAYER
  5
6E
330
2
100
AcDbSymbolTableRecord
100
AcDbLayerTableRecord
  2
53
 70
     0
 62
    53
  6
CONTINUOUS
  0
LAYER
  5
6F
330
2
100
AcDbSymbolTableRecord
100
AcDbLayerTableRecord
  2
54
 70
     0
 62
    54
  6
CONTINUOUS
  0
LAYER
  5
70
330
2
100
AcDbSymbolTableRecord
100
AcDbLayerTableRecord
  2
55
 70
     0
 62
    55
  6
CONTINUOUS
  0
LAYER
  5
71
330
2
100
AcDbSymbolTableRecord
100
AcDbLayerTableRecord
  2
56
 70
     0
 62
    56
  6
CONTINUOUS
  0
LAYER
  5
72
330
2
100
AcDbSymbolTableRecord
100
AcDbLayerTableRecord
  2
57
 70
     0
 62
    57
  6
CONTINUOUS
  0
LAYER
  5
73
330
2
100
AcDbSymbolTableRecord
100
AcDbLayerTableRecord
  2
58
 70
     0
 62
    58
  6
CONTINUOUS
  0
LAYER
  5
74
330
2
100
AcDbSymbolTableRecord
100
AcDbLayerTableRecord
  2
59
 70
     0
 62
    59
  6
CONTINUOUS
  0
LAYER
  5
75
330
2
100
AcDbSymbolTableRecord
100
AcDbLayerTableRecord
  2
60
 70
     0
 62
    60
  6
CONTINUOUS
  0
LAYER
  5
76
330
2
100
AcDbSymbolTableRecord
100
AcDbLayerTableRecord
  2
61
 70
     0
 62
    61
  6
CONTINUOUS
  0
LAYER
  5
77
330
2
100
AcDbSymbolTableRecord
100
AcDbLayerTableRecord
  2
62
 70
     0
 62
    62
  6
CONTINUOUS
  0
LAYER
  5
78
330
2
100
AcDbSymbolTableRecord
100
AcDbLayerTableRecord
  2
63
 70
     0
 62
    63
  6
CONTINUOUS
  0
LAYER
  5
79
330
2
100
AcDbSymbolTableRecord
100
AcDbLayerTableRecord
  2
64
 70
     0
 62
    64
  6
CONTINUOUS
  0
LAYER
  5
7A
330
2
100
AcDbSymbolTableRecord
100
AcDbLayerTableRecord
  2
65
 70
     0
 62
    65
  6
CONTINUOUS
  0
LAYER
  5
7B
330
2
100
AcDbSymbolTableRecord
100
AcDbLayerTableRecord
  2
66
 70
     0
 62
    66
  6
CONTINUOUS
  0
LAYER
  5
7C
330
2
100
AcDbSymbolTableRecord
100
AcDbLayerTableRecord
  2
67
 70
     0
 62
    67
  6
CONTINUOUS
  0
LAYER
  5
7D
330
2
100
AcDbSymbolTableRecord
100
AcDbLayerTableRecord
  2
68
 70
     0
 62
    68
  6
CONTINUOUS
  0
LAYER
  5
7E
330
2
100
AcDbSymbolTableRecord
100
AcDbLayerTableRecord
  2
69
 70
     0
 62
    69
  6
CONTINUOUS
  0
LAYER
  5
7F
330
2
100
AcDbSymbolTableRecord
100
AcDbLayerTableRecord
  2
70
 70
     0
 62
    70
  6
CONTINUOUS
  0
LAYER
  5
80
330
2
100
AcDbSymbolTableRecord
100
AcDbLayerTableRecord
  2
71
 70
     0
 62
    71
  6
CONTINUOUS
  0
LAYER
  5
81
330
2
100
AcDbSymbolTableRecord
100
AcDbLayerTableRecord
  2
72
 70
     0
 62
    72
  6
CONTINUOUS
  0
LAYER
  5
82
330
2
100
AcDbSymbolTableRecord
100
AcDbLayerTableRecord
  2
73
 70
     0
 62
    73
  6
CONTINUOUS
  0
LAYER
  5
83
330
2
100
AcDbSymbolTableRecord
100
AcDbLayerTableRecord
  2
74
 70
     0
 62
    74
  6
CONTINUOUS
  0
LAYER
  5
84
330
2
100
AcDbSymbolTableRecord
100
AcDbLayerTableRecord
  2
75
 70
     0
 62
    75
  6
CONTINUOUS
  0
LAYER
  5
85
330
2
100
AcDbSymbolTableRecord
100
AcDbLayerTableRecord
  2
76
 70
     0
 62
    76
  6
CONTINUOUS
  0
LAYER
  5
86
330
2
100
AcDbSymbolTableRecord
100
AcDbLayerTableRecord
  2
77
 70
     0
 62
    77
  6
CONTINUOUS
  0
LAYER
  5
87
330
2
100
AcDbSymbolTableRecord
100
AcDbLayerTableRecord
  2
78
 70
     0
 62
    78
  6
CONTINUOUS
  0
LAYER
  5
88
330
2
100
AcDbSymbolTableRecord
100
AcDbLayerTableRecord
  2
79
 70
     0
 62
    79
  6
CONTINUOUS
  0
LAYER
  5
89
330
2
100
AcDbSymbolTableRecord
100
AcDbLayerTableRecord
  2
80
 70
     0
 62
    80
  6
CONTINUOUS
  0
LAYER
  5
8A
330
2
100
AcDbSymbolTableRecord
100
AcDbLayerTableRecord
  2
81
 70
     0
 62
    81
  6
CONTINUOUS
  0
LAYER
  5
8B
330
2
100
AcDbSymbolTableRecord
100
AcDbLayerTableRecord
  2
82
 70
     0
 62
    82
  6
CONTINUOUS
  0
LAYER
  5
8C
330
2
100
AcDbSymbolTableRecord
100
AcDbLayerTableRecord
  2
83
 70
     0
 62
    83
  6
CONTINUOUS
  0
LAYER
  5
8D
330
2
100
AcDbSymbolTableRecord
100
AcDbLayerTableRecord
  2
84
 70
     0
 62
    84
  6
CONTINUOUS
  0
LAYER
  5
8E
330
2
100
AcDbSymbolTableRecord
100
AcDbLayerTableRecord
  2
85
 70
     0
 62
    85
  6
CONTINUOUS
  0
LAYER
  5
8F
330
2
100
AcDbSymbolTableRecord
100
AcDbLayerTableRecord
  2
86
 70
     0
 62
    86
  6
CONTINUOUS
  0
LAYER
  5
90
330
2
100
AcDbSymbolTableRecord
100
AcDbLayerTableRecord
  2
87
 70
     0
 62
    87
  6
CONTINUOUS
  0
LAYER
  5
91
330
2
100
AcDbSymbolTableRecord
100
AcDbLayerTableRecord
  2
88
 70
     0
 62
    88
  6
CONTINUOUS
  0
LAYER
  5
92
330
2
100
AcDbSymbolTableRecord
100
AcDbLayerTableRecord
  2
89
 70
     0
 62
    89
  6
CONTINUOUS
  0
LAYER
  5
93
330
2
100
AcDbSymbolTableRecord
100
AcDbLayerTableRecord
  2
90
 70
     0
 62
    90
  6
CONTINUOUS
  0
LAYER
  5
94
330
2
100
AcDbSymbolTableRecord
100
AcDbLayerTableRecord
  2
91
 70
     0
 62
    91
  6
CONTINUOUS
  0
LAYER
  5
95
330
2
100
AcDbSymbolTableRecord
100
AcDbLayerTableRecord
  2
92
 70
     0
 62
    92
  6
CONTINUOUS
  0
LAYER
  5
96
330
2
100
AcDbSymbolTableRecord
100
AcDbLayerTableRecord
  2
93
 70
     0
 62
    93
  6
CONTINUOUS
  0
LAYER
  5
97
330
2
100
AcDbSymbolTableRecord
100
AcDbLayerTableRecord
  2
94
 70
     0
 62
    94
  6
CONTINUOUS
  0
LAYER
  5
98
330
2
100
AcDbSymbolTableRecord
100
AcDbLayerTableRecord
  2
95
 70
     0
 62
    95
  6
CONTINUOUS
  0
LAYER
  5
99
330
2
100
AcDbSymbolTableRecord
100
AcDbLayerTableRecord
  2
96
 70
     0
 62
    96
  6
CONTINUOUS
  0
LAYER
  5
9A
330
2
100
AcDbSymbolTableRecord
100
AcDbLayerTableRecord
  2
97
 70
     0
 62
    97
  6
CONTINUOUS
  0
LAYER
  5
9B
330
2
100
AcDbSymbolTableRecord
100
AcDbLayerTableRecord
  2
98
 70
     0
 62
    98
  6
CONTINUOUS
  0
LAYER
  5
9C
330
2
100
AcDbSymbolTableRecord
100
AcDbLayerTableRecord
  2
99
 70
     0
 62
    99
  6
CONTINUOUS
  0
LAYER
  5
9D
330
2
100
AcDbSymbolTableRecord
100
AcDbLayerTableRecord
  2
100
 70
     0
 62
   100
  6
CONTINUOUS
  0
LAYER
  5
9E
330
2
100
AcDbSymbolTableRecord
100
AcDbLayerTableRecord
  2
101
 70
     0
 62
   101
  6
CONTINUOUS
  0
LAYER
  5
9F
330
2
100
AcDbSymbolTableRecord
100
AcDbLayerTableRecord
  2
102
 70
     0
 62
   102
  6
CONTINUOUS
  0
LAYER
  5
A0
330
2
100
AcDbSymbolTableRecord
100
AcDbLayerTableRecord
  2
103
 70
     0
 62
   103
  6
CONTINUOUS
  0
LAYER
  5
A1
330
2
100
AcDbSymbolTableRecord
100
AcDbLayerTableRecord
  2
104
 70
     0
 62
   104
  6
CONTINUOUS
  0
LAYER
  5
A2
330
2
100
AcDbSymbolTableRecord
100
AcDbLayerTableRecord
  2
105
 70
     0
 62
   105
  6
CONTINUOUS
  0
LAYER
  5
A3
330
2
100
AcDbSymbolTableRecord
100
AcDbLayerTableRecord
  2
106
 70
     0
 62
   106
  6
CONTINUOUS
  0
LAYER
  5
A4
330
2
100
AcDbSymbolTableRecord
100
AcDbLayerTableRecord
  2
107
 70
     0
 62
   107
  6
CONTINUOUS
  0
LAYER
  5
A5
330
2
100
AcDbSymbolTableRecord
100
AcDbLayerTableRecord
  2
108
 70
     0
 62
   108
  6
CONTINUOUS
  0
LAYER
  5
A6
330
2
100
AcDbSymbolTableRecord
100
AcDbLayerTableRecord
  2
109
 70
     0
 62
   109
  6
CONTINUOUS
  0
LAYER
  5
A7
330
2
100
AcDbSymbolTableRecord
100
AcDbLayerTableRecord
  2
110
 70
     0
 62
   110
  6
CONTINUOUS
  0
LAYER
  5
A8
330
2
100
AcDbSymbolTableRecord
100
AcDbLayerTableRecord
  2
111
 70
     0
 62
   111
  6
CONTINUOUS
  0
LAYER
  5
A9
330
2
100
AcDbSymbolTableRecord
100
AcDbLayerTableRecord
  2
112
 70
     0
 62
   112
  6
CONTINUOUS
  0
LAYER
  5
AA
330
2
100
AcDbSymbolTableRecord
100
AcDbLayerTableRecord
  2
113
 70
     0
 62
   113
  6
CONTINUOUS
  0
LAYER
  5
AB
330
2
100
AcDbSymbolTableRecord
100
AcDbLayerTableRecord
  2
114
 70
     0
 62
   114
  6
CONTINUOUS
  0
LAYER
  5
AC
330
2
100
AcDbSymbolTableRecord
100
AcDbLayerTableRecord
  2
115
 70
     0
 62
   115
  6
CONTINUOUS
  0
LAYER
  5
AD
330
2
100
AcDbSymbolTableRecord
100
AcDbLayerTableRecord
  2
116
 70
     0
 62
   116
  6
CONTINUOUS
  0
LAYER
  5
AE
330
2
100
AcDbSymbolTableRecord
100
AcDbLayerTableRecord
  2
117
 70
     0
 62
   117
  6
CONTINUOUS
  0
LAYER
  5
AF
330
2
100
AcDbSymbolTableRecord
100
AcDbLayerTableRecord
  2
118
 70
     0
 62
   118
  6
CONTINUOUS
  0
LAYER
  5
B0
330
2
100
AcDbSymbolTableRecord
100
AcDbLayerTableRecord
  2
119
 70
     0
 62
   119
  6
CONTINUOUS
  0
LAYER
  5
B1
330
2
100
AcDbSymbolTableRecord
100
AcDbLayerTableRecord
  2
120
 70
     0
 62
   120
  6
CONTINUOUS
  0
LAYER
  5
B2
330
2
100
AcDbSymbolTableRecord
100
AcDbLayerTableRecord
  2
121
 70
     0
 62
   121
  6
CONTINUOUS
  0
LAYER
  5
B3
330
2
100
AcDbSymbolTableRecord
100
AcDbLayerTableRecord
  2
122
 70
     0
 62
   122
  6
CONTINUOUS
  0
LAYER
  5
B4
330
2
100
AcDbSymbolTableRecord
100
AcDbLayerTableRecord
  2
123
 70
     0
 62
   123
  6
CONTINUOUS
  0
LAYER
  5
B5
330
2
100
AcDbSymbolTableRecord
100
AcDbLayerTableRecord
  2
124
 70
     0
 62
   124
  6
CONTINUOUS
  0
LAYER
  5
B6
330
2
100
AcDbSymbolTableRecord
100
AcDbLayerTableRecord
  2
125
 70
     0
 62
   125
  6
CONTINUOUS
  0
LAYER
  5
B7
330
2
100
AcDbSymbolTableRecord
100
AcDbLayerTableRecord
  2
126
 70
     0
 62
   126
  6
CONTINUOUS
  0
LAYER
  5
B8
330
2
100
AcDbSymbolTableRecord
100
AcDbLayerTableRecord
  2
127
 70
     0
 62
   127
  6
CONTINUOUS
  0
LAYER
  5
B9
330
2
100
AcDbSymbolTableRecord
100
AcDbLayerTableRecord
  2
128
 70
     0
 62
   128
  6
CONTINUOUS
  0
LAYER
  5
BA
330
2
100
AcDbSymbolTableRecord
100
AcDbLayerTableRecord
  2
129
 70
     0
 62
   129
  6
CONTINUOUS
  0
LAYER
  5
BB
330
2
100
AcDbSymbolTableRecord
100
AcDbLayerTableRecord
  2
130
 70
     0
 62
   130
  6
CONTINUOUS
  0
LAYER
  5
BC
330
2
100
AcDbSymbolTableRecord
100
AcDbLayerTableRecord
  2
131
 70
     0
 62
   131
  6
CONTINUOUS
  0
LAYER
  5
BD
330
2
100
AcDbSymbolTableRecord
100
AcDbLayerTableRecord
  2
132
 70
     0
 62
   132
  6
CONTINUOUS
  0
LAYER
  5
BE
330
2
100
AcDbSymbolTableRecord
100
AcDbLayerTableRecord
  2
133
 70
     0
 62
   133
  6
CONTINUOUS
  0
LAYER
  5
BF
330
2
100
AcDbSymbolTableRecord
100
AcDbLayerTableRecord
  2
134
 70
     0
 62
   134
  6
CONTINUOUS
  0
LAYER
  5
C0
330
2
100
AcDbSymbolTableRecord
100
AcDbLayerTableRecord
  2
135
 70
     0
 62
   135
  6
CONTINUOUS
  0
LAYER
  5
C1
330
2
100
AcDbSymbolTableRecord
100
AcDbLayerTableRecord
  2
136
 70
     0
 62
   136
  6
CONTINUOUS
  0
LAYER
  5
C2
330
2
100
AcDbSymbolTableRecord
100
AcDbLayerTableRecord
  2
137
 70
     0
 62
   137
  6
CONTINUOUS
  0
LAYER
  5
C3
330
2
100
AcDbSymbolTableRecord
100
AcDbLayerTableRecord
  2
138
 70
     0
 62
   138
  6
CONTINUOUS
  0
LAYER
  5
C4
330
2
100
AcDbSymbolTableRecord
100
AcDbLayerTableRecord
  2
139
 70
     0
 62
   139
  6
CONTINUOUS
  0
LAYER
  5
C5
330
2
100
AcDbSymbolTableRecord
100
AcDbLayerTableRecord
  2
140
 70
     0
 62
   140
  6
CONTINUOUS
  0
LAYER
  5
C6
330
2
100
AcDbSymbolTableRecord
100
AcDbLayerTableRecord
  2
141
 70
     0
 62
   141
  6
CONTINUOUS
  0
LAYER
  5
C7
330
2
100
AcDbSymbolTableRecord
100
AcDbLayerTableRecord
  2
142
 70
     0
 62
   142
  6
CONTINUOUS
  0
LAYER
  5
C8
330
2
100
AcDbSymbolTableRecord
100
AcDbLayerTableRecord
  2
143
 70
     0
 62
   143
  6
CONTINUOUS
  0
LAYER
  5
C9
330
2
100
AcDbSymbolTableRecord
100
AcDbLayerTableRecord
  2
144
 70
     0
 62
   144
  6
CONTINUOUS
  0
LAYER
  5
CA
330
2
100
AcDbSymbolTableRecord
100
AcDbLayerTableRecord
  2
145
 70
     0
 62
   145
  6
CONTINUOUS
  0
LAYER
  5
CB
330
2
100
AcDbSymbolTableRecord
100
AcDbLayerTableRecord
  2
146
 70
     0
 62
   146
  6
CONTINUOUS
  0
LAYER
  5
CC
330
2
100
AcDbSymbolTableRecord
100
AcDbLayerTableRecord
  2
147
 70
     0
 62
   147
  6
CONTINUOUS
  0
LAYER
  5
CD
330
2
100
AcDbSymbolTableRecord
100
AcDbLayerTableRecord
  2
148
 70
     0
 62
   148
  6
CONTINUOUS
  0
LAYER
  5
CE
330
2
100
AcDbSymbolTableRecord
100
AcDbLayerTableRecord
  2
149
 70
     0
 62
   149
  6
CONTINUOUS
  0
LAYER
  5
CF
330
2
100
AcDbSymbolTableRecord
100
AcDbLayerTableRecord
  2
150
 70
     0
 62
   150
  6
CONTINUOUS
  0
LAYER
  5
D0
330
2
100
AcDbSymbolTableRecord
100
AcDbLayerTableRecord
  2
151
 70
     0
 62
   151
  6
CONTINUOUS
  0
LAYER
  5
D1
330
2
100
AcDbSymbolTableRecord
100
AcDbLayerTableRecord
  2
152
 70
     0
 62
   152
  6
CONTINUOUS
  0
LAYER
  5
D2
330
2
100
AcDbSymbolTableRecord
100
AcDbLayerTableRecord
  2
153
 70
     0
 62
   153
  6
CONTINUOUS
  0
LAYER
  5
D3
330
2
100
AcDbSymbolTableRecord
100
AcDbLayerTableRecord
  2
154
 70
     0
 62
   154
  6
CONTINUOUS
  0
LAYER
  5
D4
330
2
100
AcDbSymbolTableRecord
100
AcDbLayerTableRecord
  2
155
 70
     0
 62
   155
  6
CONTINUOUS
  0
LAYER
  5
D5
330
2
100
AcDbSymbolTableRecord
100
AcDbLayerTableRecord
  2
156
 70
     0
 62
   156
  6
CONTINUOUS
  0
LAYER
  5
D6
330
2
100
AcDbSymbolTableRecord
100
AcDbLayerTableRecord
  2
157
 70
     0
 62
   157
  6
CONTINUOUS
  0
LAYER
  5
D7
330
2
100
AcDbSymbolTableRecord
100
AcDbLayerTableRecord
  2
158
 70
     0
 62
   158
  6
CONTINUOUS
  0
LAYER
  5
D8
330
2
100
AcDbSymbolTableRecord
100
AcDbLayerTableRecord
  2
159
 70
     0
 62
   159
  6
CONTINUOUS
  0
LAYER
  5
D9
330
2
100
AcDbSymbolTableRecord
100
AcDbLayerTableRecord
  2
160
 70
     0
 62
   160
  6
CONTINUOUS
  0
LAYER
  5
DA
330
2
100
AcDbSymbolTableRecord
100
AcDbLayerTableRecord
  2
161
 70
     0
 62
   161
  6
CONTINUOUS
  0
LAYER
  5
DB
330
2
100
AcDbSymbolTableRecord
100
AcDbLayerTableRecord
  2
162
 70
     0
 62
   162
  6
CONTINUOUS
  0
LAYER
  5
DC
330
2
100
AcDbSymbolTableRecord
100
AcDbLayerTableRecord
  2
163
 70
     0
 62
   163
  6
CONTINUOUS
  0
LAYER
  5
DD
330
2
100
AcDbSymbolTableRecord
100
AcDbLayerTableRecord
  2
164
 70
     0
 62
   164
  6
CONTINUOUS
  0
LAYER
  5
DE
330
2
100
AcDbSymbolTableRecord
100
AcDbLayerTableRecord
  2
165
 70
     0
 62
   165
  6
CONTINUOUS
  0
LAYER
  5
DF
330
2
100
AcDbSymbolTableRecord
100
AcDbLayerTableRecord
  2
166
 70
     0
 62
   166
  6
CONTINUOUS
  0
LAYER
  5
E0
330
2
100
AcDbSymbolTableRecord
100
AcDbLayerTableRecord
  2
167
 70
     0
 62
   167
  6
CONTINUOUS
  0
LAYER
  5
E1
330
2
100
AcDbSymbolTableRecord
100
AcDbLayerTableRecord
  2
168
 70
     0
 62
   168
  6
CONTINUOUS
  0
LAYER
  5
E2
330
2
100
AcDbSymbolTableRecord
100
AcDbLayerTableRecord
  2
169
 70
     0
 62
   169
  6
CONTINUOUS
  0
LAYER
  5
E3
330
2
100
AcDbSymbolTableRecord
100
AcDbLayerTableRecord
  2
170
 70
     0
 62
   170
  6
CONTINUOUS
  0
LAYER
  5
E4
330
2
100
AcDbSymbolTableRecord
100
AcDbLayerTableRecord
  2
171
 70
     0
 62
   171
  6
CONTINUOUS
  0
LAYER
  5
E5
330
2
100
AcDbSymbolTableRecord
100
AcDbLayerTableRecord
  2
172
 70
     0
 62
   172
  6
CONTINUOUS
  0
LAYER
  5
E6
330
2
100
AcDbSymbolTableRecord
100
AcDbLayerTableRecord
  2
173
 70
     0
 62
   173
  6
CONTINUOUS
  0
LAYER
  5
E7
330
2
100
AcDbSymbolTableRecord
100
AcDbLayerTableRecord
  2
174
 70
     0
 62
   174
  6
CONTINUOUS
  0
LAYER
  5
E8
330
2
100
AcDbSymbolTableRecord
100
AcDbLayerTableRecord
  2
175
 70
     0
 62
   175
  6
CONTINUOUS
  0
LAYER
  5
E9
330
2
100
AcDbSymbolTableRecord
100
AcDbLayerTableRecord
  2
176
 70
     0
 62
   176
  6
CONTINUOUS
  0
LAYER
  5
EA
330
2
100
AcDbSymbolTableRecord
100
AcDbLayerTableRecord
  2
177
 70
     0
 62
   177
  6
CONTINUOUS
  0
LAYER
  5
EB
330
2
100
AcDbSymbolTableRecord
100
AcDbLayerTableRecord
  2
178
 70
     0
 62
   178
  6
CONTINUOUS
  0
LAYER
  5
EC
330
2
100
AcDbSymbolTableRecord
100
AcDbLayerTableRecord
  2
179
 70
     0
 62
   179
  6
CONTINUOUS
  0
LAYER
  5
ED
330
2
100
AcDbSymbolTableRecord
100
AcDbLayerTableRecord
  2
180
 70
     0
 62
   180
  6
CONTINUOUS
  0
LAYER
  5
EE
330
2
100
AcDbSymbolTableRecord
100
AcDbLayerTableRecord
  2
181
 70
     0
 62
   181
  6
CONTINUOUS
  0
LAYER
  5
EF
330
2
100
AcDbSymbolTableRecord
100
AcDbLayerTableRecord
  2
182
 70
     0
 62
   182
  6
CONTINUOUS
  0
LAYER
  5
F0
330
2
100
AcDbSymbolTableRecord
100
AcDbLayerTableRecord
  2
183
 70
     0
 62
   183
  6
CONTINUOUS
  0
LAYER
  5
F1
330
2
100
AcDbSymbolTableRecord
100
AcDbLayerTableRecord
  2
184
 70
     0
 62
   184
  6
CONTINUOUS
  0
LAYER
  5
F2
330
2
100
AcDbSymbolTableRecord
100
AcDbLayerTableRecord
  2
185
 70
     0
 62
   185
  6
CONTINUOUS
  0
LAYER
  5
F3
330
2
100
AcDbSymbolTableRecord
100
AcDbLayerTableRecord
  2
186
 70
     0
 62
   186
  6
CONTINUOUS
  0
LAYER
  5
F4
330
2
100
AcDbSymbolTableRecord
100
AcDbLayerTableRecord
  2
187
 70
     0
 62
   187
  6
CONTINUOUS
  0
LAYER
  5
F5
330
2
100
AcDbSymbolTableRecord
100
AcDbLayerTableRecord
  2
188
 70
     0
 62
   188
  6
CONTINUOUS
  0
LAYER
  5
F6
330
2
100
AcDbSymbolTableRecord
100
AcDbLayerTableRecord
  2
189
 70
     0
 62
   189
  6
CONTINUOUS
  0
LAYER
  5
F7
330
2
100
AcDbSymbolTableRecord
100
AcDbLayerTableRecord
  2
190
 70
     0
 62
   190
  6
CONTINUOUS
  0
LAYER
  5
F8
330
2
100
AcDbSymbolTableRecord
100
AcDbLayerTableRecord
  2
191
 70
     0
 62
   191
  6
CONTINUOUS
  0
LAYER
  5
F9
330
2
100
AcDbSymbolTableRecord
100
AcDbLayerTableRecord
  2
192
 70
     0
 62
   192
  6
CONTINUOUS
  0
LAYER
  5
FA
330
2
100
AcDbSymbolTableRecord
100
AcDbLayerTableRecord
  2
193
 70
     0
 62
   193
  6
CONTINUOUS
  0
LAYER
  5
FB
330
2
100
AcDbSymbolTableRecord
100
AcDbLayerTableRecord
  2
194
 70
     0
 62
   194
  6
CONTINUOUS
  0
LAYER
  5
FC
330
2
100
AcDbSymbolTableRecord
100
AcDbLayerTableRecord
  2
195
 70
     0
 62
   195
  6
CONTINUOUS
  0
LAYER
  5
FD
330
2
100
AcDbSymbolTableRecord
100
AcDbLayerTableRecord
  2
196
 70
     0
 62
   196
  6
CONTINUOUS
  0
LAYER
  5
FE
330
2
100
AcDbSymbolTableRecord
100
AcDbLayerTableRecord
  2
197
 70
     0
 62
   197
  6
CONTINUOUS
  0
LAYER
  5
FF
330
2
100
AcDbSymbolTableRecord
100
AcDbLayerTableRecord
  2
198
 70
     0
 62
   198
  6
CONTINUOUS
  0
LAYER
  5
100
330
2
100
AcDbSymbolTableRecord
100
AcDbLayerTableRecord
  2
199
 70
     0
 62
   199
  6
CONTINUOUS
  0
LAYER
  5
101
330
2
100
AcDbSymbolTableRecord
100
AcDbLayerTableRecord
  2
200
 70
     0
 62
   200
  6
CONTINUOUS
  0
LAYER
  5
102
330
2
100
AcDbSymbolTableRecord
100
AcDbLayerTableRecord
  2
201
 70
     0
 62
   201
  6
CONTINUOUS
  0
LAYER
  5
103
330
2
100
AcDbSymbolTableRecord
100
AcDbLayerTableRecord
  2
202
 70
     0
 62
   202
  6
CONTINUOUS
  0
LAYER
  5
104
330
2
100
AcDbSymbolTableRecord
100
AcDbLayerTableRecord
  2
203
 70
     0
 62
   203
  6
CONTINUOUS
  0
LAYER
  5
105
330
2
100
AcDbSymbolTableRecord
100
AcDbLayerTableRecord
  2
204
 70
     0
 62
   204
  6
CONTINUOUS
  0
LAYER
  5
106
330
2
100
AcDbSymbolTableRecord
100
AcDbLayerTableRecord
  2
205
 70
     0
 62
   205
  6
CONTINUOUS
  0
LAYER
  5
107
330
2
100
AcDbSymbolTableRecord
100
AcDbLayerTableRecord
  2
206
 70
     0
 62
   206
  6
CONTINUOUS
  0
LAYER
  5
108
330
2
100
AcDbSymbolTableRecord
100
AcDbLayerTableRecord
  2
207
 70
     0
 62
   207
  6
CONTINUOUS
  0
LAYER
  5
109
330
2
100
AcDbSymbolTableRecord
100
AcDbLayerTableRecord
  2
208
 70
     0
 62
   208
  6
CONTINUOUS
  0
LAYER
  5
10A
330
2
100
AcDbSymbolTableRecord
100
AcDbLayerTableRecord
  2
209
 70
     0
 62
   209
  6
CONTINUOUS
  0
LAYER
  5
10B
330
2
100
AcDbSymbolTableRecord
100
AcDbLayerTableRecord
  2
210
 70
     0
 62
   210
  6
CONTINUOUS
  0
LAYER
  5
10C
330
2
100
AcDbSymbolTableRecord
100
AcDbLayerTableRecord
  2
211
 70
     0
 62
   211
  6
CONTINUOUS
  0
LAYER
  5
10D
330
2
100
AcDbSymbolTableRecord
100
AcDbLayerTableRecord
  2
212
 70
     0
 62
   212
  6
CONTINUOUS
  0
LAYER
  5
10E
330
2
100
AcDbSymbolTableRecord
100
AcDbLayerTableRecord
  2
213
 70
     0
 62
   213
  6
CONTINUOUS
  0
LAYER
  5
10F
330
2
100
AcDbSymbolTableRecord
100
AcDbLayerTableRecord
  2
214
 70
     0
 62
   214
  6
CONTINUOUS
  0
LAYER
  5
110
330
2
100
AcDbSymbolTableRecord
100
AcDbLayerTableRecord
  2
215
 70
     0
 62
   215
  6
CONTINUOUS
  0
LAYER
  5
111
330
2
100
AcDbSymbolTableRecord
100
AcDbLayerTableRecord
  2
216
 70
     0
 62
   216
  6
CONTINUOUS
  0
LAYER
  5
112
330
2
100
AcDbSymbolTableRecord
100
AcDbLayerTableRecord
  2
217
 70
     0
 62
   217
  6
CONTINUOUS
  0
LAYER
  5
113
330
2
100
AcDbSymbolTableRecord
100
AcDbLayerTableRecord
  2
218
 70
     0
 62
   218
  6
CONTINUOUS
  0
LAYER
  5
114
330
2
100
AcDbSymbolTableRecord
100
AcDbLayerTableRecord
  2
219
 70
     0
 62
   219
  6
CONTINUOUS
  0
LAYER
  5
115
330
2
100
AcDbSymbolTableRecord
100
AcDbLayerTableRecord
  2
220
 70
     0
 62
   220
  6
CONTINUOUS
  0
LAYER
  5
116
330
2
100
AcDbSymbolTableRecord
100
AcDbLayerTableRecord
  2
221
 70
     0
 62
   221
  6
CONTINUOUS
  0
LAYER
  5
117
330
2
100
AcDbSymbolTableRecord
100
AcDbLayerTableRecord
  2
222
 70
     0
 62
   222
  6
CONTINUOUS
  0
LAYER
  5
118
330
2
100
AcDbSymbolTableRecord
100
AcDbLayerTableRecord
  2
223
 70
     0
 62
   223
  6
CONTINUOUS
  0
LAYER
  5
119
330
2
100
AcDbSymbolTableRecord
100
AcDbLayerTableRecord
  2
224
 70
     0
 62
   224
  6
CONTINUOUS
  0
LAYER
  5
11A
330
2
100
AcDbSymbolTableRecord
100
AcDbLayerTableRecord
  2
225
 70
     0
 62
   225
  6
CONTINUOUS
  0
LAYER
  5
11B
330
2
100
AcDbSymbolTableRecord
100
AcDbLayerTableRecord
  2
226
 70
     0
 62
   226
  6
CONTINUOUS
  0
LAYER
  5
11C
330
2
100
AcDbSymbolTableRecord
100
AcDbLayerTableRecord
  2
227
 70
     0
 62
   227
  6
CONTINUOUS
  0
LAYER
  5
11D
330
2
100
AcDbSymbolTableRecord
100
AcDbLayerTableRecord
  2
228
 70
     0
 62
   228
  6
CONTINUOUS
  0
LAYER
  5
11E
330
2
100
AcDbSymbolTableRecord
100
AcDbLayerTableRecord
  2
229
 70
     0
 62
   229
  6
CONTINUOUS
  0
LAYER
  5
11F
330
2
100
AcDbSymbolTableRecord
100
AcDbLayerTableRecord
  2
230
 70
     0
 62
   230
  6
CONTINUOUS
  0
LAYER
  5
120
330
2
100
AcDbSymbolTableRecord
100
AcDbLayerTableRecord
  2
231
 70
     0
 62
   231
  6
CONTINUOUS
  0
LAYER
  5
121
330
2
100
AcDbSymbolTableRecord
100
AcDbLayerTableRecord
  2
232
 70
     0
 62
   232
  6
CONTINUOUS
  0
LAYER
  5
122
330
2
100
AcDbSymbolTableRecord
100
AcDbLayerTableRecord
  2
233
 70
     0
 62
   233
  6
CONTINUOUS
  0
LAYER
  5
123
330
2
100
AcDbSymbolTableRecord
100
AcDbLayerTableRecord
  2
234
 70
     0
 62
   234
  6
CONTINUOUS
  0
LAYER
  5
124
330
2
100
AcDbSymbolTableRecord
100
AcDbLayerTableRecord
  2
235
 70
     0
 62
   235
  6
CONTINUOUS
  0
LAYER
  5
125
330
2
100
AcDbSymbolTableRecord
100
AcDbLayerTableRecord
  2
236
 70
     0
 62
   236
  6
CONTINUOUS
  0
LAYER
  5
126
330
2
100
AcDbSymbolTableRecord
100
AcDbLayerTableRecord
  2
237
 70
     0
 62
   237
  6
CONTINUOUS
  0
LAYER
  5
127
330
2
100
AcDbSymbolTableRecord
100
AcDbLayerTableRecord
  2
238
 70
     0
 62
   238
  6
CONTINUOUS
  0
LAYER
  5
128
330
2
100
AcDbSymbolTableRecord
100
AcDbLayerTableRecord
  2
239
 70
     0
 62
   239
  6
CONTINUOUS
  0
LAYER
  5
129
330
2
100
AcDbSymbolTableRecord
100
AcDbLayerTableRecord
  2
240
 70
     0
 62
   240
  6
CONTINUOUS
  0
LAYER
  5
12A
330
2
100
AcDbSymbolTableRecord
100
AcDbLayerTableRecord
  2
241
 70
     0
 62
   241
  6
CONTINUOUS
  0
LAYER
  5
12B
330
2
100
AcDbSymbolTableRecord
100
AcDbLayerTableRecord
  2
242
 70
     0
 62
   242
  6
CONTINUOUS
  0
LAYER
  5
12C
330
2
100
AcDbSymbolTableRecord
100
AcDbLayerTableRecord
  2
243
 70
     0
 62
   243
  6
CONTINUOUS
  0
LAYER
  5
12D
330
2
100
AcDbSymbolTableRecord
100
AcDbLayerTableRecord
  2
244
 70
     0
 62
   244
  6
CONTINUOUS
  0
LAYER
  5
12E
330
2
100
AcDbSymbolTableRecord
100
AcDbLayerTableRecord
  2
245
 70
     0
 62
   245
  6
CONTINUOUS
  0
LAYER
  5
12F
330
2
100
AcDbSymbolTableRecord
100
AcDbLayerTableRecord
  2
246
 70
     0
 62
   246
  6
CONTINUOUS
  0
LAYER
  5
130
330
2
100
AcDbSymbolTableRecord
100
AcDbLayerTableRecord
  2
247
 70
     0
 62
   247
  6
CONTINUOUS
  0
LAYER
  5
131
330
2
100
AcDbSymbolTableRecord
100
AcDbLayerTableRecord
  2
248
 70
     0
 62
   248
  6
CONTINUOUS
  0
LAYER
  5
132
330
2
100
AcDbSymbolTableRecord
100
AcDbLayerTableRecord
  2
249
 70
     0
 62
   249
  6
CONTINUOUS
  0
LAYER
  5
133
330
2
100
AcDbSymbolTableRecord
100
AcDbLayerTableRecord
  2
250
 70
     0
 62
   250
  6
CONTINUOUS
  0
LAYER
  5
134
330
2
100
AcDbSymbolTableRecord
100
AcDbLayerTableRecord
  2
251
 70
     0
 62
   251
  6
CONTINUOUS
  0
LAYER
  5
135
330
2
100
AcDbSymbolTableRecord
100
AcDbLayerTableRecord
  2
252
 70
     0
 62
   252
  6
CONTINUOUS
  0
LAYER
  5
136
330
2
100
AcDbSymbolTableRecord
100
AcDbLayerTableRecord
  2
253
 70
     0
 62
   253
  6
CONTINUOUS
  0
LAYER
  5
137
330
2
100
AcDbSymbolTableRecord
100
AcDbLayerTableRecord
  2
254
 70
     0
 62
   254
  6
CONTINUOUS
  0
LAYER
  5
138
330
2
100
AcDbSymbolTableRecord
100
AcDbLayerTableRecord
  2
255
 70
     0
 62
   255
  6
CONTINUOUS
  0
ENDTAB
  0
TABLE
  2
STYLE
  5
3
330
0
100
AcDbSymbolTable
 70
     1
  0
STYLE
  5
11
330
3
100
AcDbSymbolTableRecord
100
AcDbTextStyleTableRecord
  2
STANDARD
 70
     0
 40
0.0
 41
1.0
 50
0.0
 71
     0
 42
0.2
  3
monotxt
  4

  0
ENDTAB
  0
TABLE
  2
VIEW
  5
6
330
0
100
AcDbSymbolTable
 70
     0
  0
ENDTAB
  0
TABLE
  2
UCS
  5
7
330
0
100
AcDbSymbolTable
 70
     0
  0
ENDTAB
  0
TABLE
  2
APPID
  5
9
330
0
100
AcDbSymbolTable
 70
     1
  0
APPID
  5
12
330
9
100
AcDbSymbolTableRecord
100
AcDbRegAppTableRecord
  2
ACAD
 70
     0
  0
ENDTAB
  0
TABLE
  2
DIMSTYLE
  5
A
330
0
100
AcDbSymbolTable
 70
     1
  0
DIMSTYLE
105
217B
330
A
100
AcDbSymbolTableRecord
100
AcDbDimStyleTableRecord
  2
STANDARD
 70
     0
  3

  4

  5

  6

  7

 40
1.0
 41
0.18
 42
0.0625
 43
0.38
 44
0.18
 45
0.0
 46
0.0
 47
0.0
 48
0.0
140
0.18
141
0.09
142
0.0
143
25.4
144
1.0
145
0.0
146
1.0
147
0.09
 71
     0
 72
     0
 73
     1
 74
     1
 75
     0
 76
     0
 77
     0
 78
     0
170
     0
171
     2
172
     0
173
     0
174
     0
175
     0
176
     0
177
     0
178
     0
270
     2
271
     4
272
     4
273
     2
274
     2
340
11
275
     0
280
     0
281
     0
282
     0
283
     1
284
     0
285
     0
286
     0
287
     3
288
     0
  0
ENDTAB
  0
TABLE
  2
BLOCK_RECORD
  5
1
330
0
100
AcDbSymbolTable
 70
     0
  0
BLOCK_RECORD
  5
1E
102
{ACAD_XDICTIONARY
360
31A5
102
}
330
1
100
AcDbSymbolTableRecord
100
AcDbBlockTableRecord
  2
*MODEL_SPACE
  0
BLOCK_RECORD
  5
1A
102
{ACAD_XDICTIONARY
360
31A7
102
}
330
1
100
AcDbSymbolTableRecord
100
AcDbBlockTableRecord
  2
*PAPER_SPACE
  0
ENDTAB
  0
ENDSEC
  0
SECTION
  2
BLOCKS
  0
BLOCK
  5
13B
330
1E
100
AcDbEntity
  8
0
100
AcDbBlockBegin
  2
*MODEL_SPACE
 70
     0
 10
0.0
 20
0.0
 30
0.0
  3
*MODEL_SPACE
  1

  0
ENDBLK
  5
13C
330
1E
100
AcDbEntity
  8
0
100
AcDbBlockEnd
  0
BLOCK
  5
139
330
1A
100
AcDbEntity
 67
     1
  8
0
100
AcDbBlockBegin
  2
*PAPER_SPACE
 70
     0
 10
0.0
 20
0.0
 30
0.0
  3
*PAPER_SPACE
  1

  0
ENDBLK
  5
13A
330
1A
100
AcDbEntity
 67
     1
  8
0
100
AcDbBlockEnd
  0
ENDSEC
  0
SECTION
  2
ENTITIES
  0
LINE
  5
1C80
330
1E
100
AcDbEntity
  8
3
100
AcDbLine
 10
-1.275590551181102
 20
-0.1673228346456685
 30
0.0
 11
-1.0501968503937
 21
-0.1673228346456685
 31
0.0
  0
LINE
  5
1C81
330
1E
100
AcDbEntity
  8
3
100
AcDbLine
 10
-0.875984251968504
 20
-0.1683070866141731
 30
0.0
 11
-1.0501968503937
 21
-0.1683070866141731
 31
0.0
  0
LINE
  5
1C82
330
1E
100
AcDbEntity
  8
3
100
AcDbLine
 10
-1.275590551181102
 20
-0.1673228346456685
 30
0.0
 11
-1.276574803149606
 21
-0.1692913385826769
 31
0.0
  0
LINE
  5
1C83
330
1E
100
AcDbEntity
  8
3
100
AcDbLine
 10
-0.6496062992125986
 20
-0.1692913385826769
 30
0.0
 11
-1.276574803149606
 21
-0.1692913385826769
 31
0.0
  0
LINE
  5
1C84
330
1E
100
AcDbEntity
  8
3
100
AcDbLine
 10
-0.6505905511811028
 20
-0.1673228346456685
 30
0.0
 11
-0.6496062992125986
 21
-0.1692913385826769
 31
0.0
  0
LINE
  5
1C85
330
1E
100
AcDbEntity
  8
3
100
AcDbLine
 10
-0.875984251968504
 20
-0.1673228346456685
 30
0.0
 11
-0.6505905511811028
 21
-0.1673228346456685
 31
0.0
  0
LINE
  5
1C8B
330
1E
100
AcDbEntity
  8
3
100
AcDbLine
 10
-0.1072834645669292
 20
0.3828740157480315
 30
0.0
 11
-0.1269685039370079
 21
0.3828740157480315
 31
0.0
  0
LINE
  5
1C8C
330
1E
100
AcDbEntity
  8
3
100
AcDbLine
 10
-0.1368110236220472
 20
0.3730314960629926
 30
0.0
 11
-0.1338582677165356
 21
0.3799212598425203
 31
0.0
  0
LINE
  5
1C8D
330
1E
100
AcDbEntity
  8
3
100
AcDbLine
 10
-0.1338582677165356
 20
0.3799212598425203
 30
0.0
 11
-0.1269685039370079
 21
0.3828740157480315
 31
0.0
  0
LINE
  5
1C9A
330
1E
100
AcDbEntity
  8
3
100
AcDbLine
 10
-0.1968503937007875
 20
0.0580708661417324
 30
0.0
 11
-0.1968503937007875
 21
0.293307086614174
 31
0.0
  0
LINE
  5
1CAC
330
1E
100
AcDbEntity
  8
3
100
AcDbLine
 10
-0.1269685039370079
 20
-0.0314960629921259
 30
0.0
 11
-0.1072834645669292
 21
-0.0314960629921259
 31
0.0
  0
LINE
  5
1CB2
330
1E
100
AcDbEntity
  8
3
100
AcDbLine
 10
-0.0974409448818898
 20
-0.0413385826771648
 30
0.0
 11
-0.0974409448818898
 21
-0.1387795275590546
 31
0.0
  0
LINE
  5
1CB8
330
1E
100
AcDbEntity
  8
3
100
AcDbLine
 10
-0.1072834645669292
 20
-0.1486220472440944
 30
0.0
 11
-0.1269685039370079
 21
-0.1486220472440944
 31
0.0
  0
LINE
  5
1CBE
330
1E
100
AcDbEntity
  8
3
100
AcDbLine
 10
-0.1368110236220472
 20
-0.1594488188976371
 30
0.0
 11
-0.1368110236220472
 21
-0.1771653543307083
 31
0.0
  0
LINE
  5
1CBF
330
1E
100
AcDbEntity
  8
3
100
AcDbLine
 10
-0.1368110236220472
 20
-0.0019685039370074
 30
0.0
 11
-0.1368110236220472
 21
-0.0206692913385824
 31
0.0
  0
LINE
  5
1CC7
330
1E
100
AcDbEntity
  8
3
100
AcDbLine
 10
-0.1968503937007875
 20
-0.2372047244094482
 30
0.0
 11
-0.4084645669291343
 21
-0.2372047244094482
 31
0.0
  0
LINE
  5
1CC8
330
1E
100
AcDbEntity
  8
3
100
AcDbLine
 10
-0.3129921259842523
 20
0.0305118110236222
 30
0.0
 11
-0.3129921259842523
 21
0.3208661417322842
 31
0.0
  0
LINE
  5
1CC9
330
1E
100
AcDbEntity
  8
3
100
AcDbLine
 10
-0.4084645669291343
 20
0.5895669291338584
 30
0.0
 11
-0.1968503937007875
 21
0.5895669291338584
 31
0.0
  0
LINE
  5
1CD1
330
1E
100
AcDbEntity
  8
3
100
AcDbLine
 10
-0.1368110236220472
 20
0.3730314960629926
 30
0.0
 11
-0.1368110236220472
 21
0.3533464566929139
 31
0.0
  0
LINE
  5
1CD2
330
1E
100
AcDbEntity
  8
3
100
AcDbLine
 10
-0.1368110236220472
 20
0.5295275590551185
 30
0.0
 11
-0.1368110236220472
 21
0.5108267716535435
 31
0.0
  0
LINE
  5
1CD8
330
1E
100
AcDbEntity
  8
3
100
AcDbLine
 10
-0.1269685039370079
 20
0.5009842519685046
 30
0.0
 11
-0.1072834645669292
 21
0.5009842519685046
 31
0.0
  0
LINE
  5
1CDE
330
1E
100
AcDbEntity
  8
3
100
AcDbLine
 10
-0.0974409448818898
 20
0.4911417322834648
 30
0.0
 11
-0.0974409448818898
 21
0.3927165354330713
 31
0.0
  0
LINE
  5
1CDF
330
1E
100
AcDbEntity
  8
3
100
AcDbLine
 10
-0.428149606299213
 20
-0.273622047244094
 30
0.0
 11
-0.640748031496063
 21
-0.273622047244094
 31
0.0
  0
LINE
  5
1CE0
330
1E
100
AcDbEntity
  8
3
100
AcDbLine
 10
-0.4084645669291343
 20
-0.2372047244094482
 30
0.0
 11
-0.4084645669291343
 21
-0.2539370078740157
 31
0.0
  0
LINE
  5
1CE1
330
1E
100
AcDbEntity
  8
3
100
AcDbLine
 10
-0.4084645669291343
 20
0.4911417322834648
 30
0.0
 11
-0.4084645669291343
 21
0.5895669291338584
 31
0.0
  0
LINE
  5
1CE2
330
1E
100
AcDbEntity
  8
3
100
AcDbLine
 10
-0.3582677165354333
 20
0.4911417322834648
 30
0.0
 11
-0.4084645669291343
 21
0.4911417322834648
 31
0.0
  0
LINE
  5
1CE9
330
1E
100
AcDbEntity
  8
3
100
AcDbLine
 10
-0.332677165354331
 20
0.3208661417322842
 30
0.0
 11
-0.332677165354331
 21
0.465551181102363
 31
0.0
  0
LINE
  5
1CEA
330
1E
100
AcDbEntity
  8
3
100
AcDbLine
 10
-0.3129921259842523
 20
0.3208661417322842
 30
0.0
 11
-0.332677165354331
 21
0.3208661417322842
 31
0.0
  0
LINE
  5
1CEB
330
1E
100
AcDbEntity
  8
3
100
AcDbLine
 10
-0.332677165354331
 20
0.0305118110236222
 30
0.0
 11
-0.3129921259842523
 21
0.0305118110236222
 31
0.0
  0
LINE
  5
1CEC
330
1E
100
AcDbEntity
  8
3
100
AcDbLine
 10
-0.332677165354331
 20
-0.1141732283464565
 30
0.0
 11
-0.332677165354331
 21
0.0305118110236222
 31
0.0
  0
LINE
  5
1CF3
330
1E
100
AcDbEntity
  8
3
100
AcDbLine
 10
-0.4084645669291343
 20
-0.1387795275590546
 30
0.0
 11
-0.3582677165354333
 21
-0.1387795275590546
 31
0.0
  0
LINE
  5
1CF4
330
1E
100
AcDbEntity
  8
3
100
AcDbLine
 10
-0.4084645669291343
 20
-0.2372047244094482
 30
0.0
 11
-0.4084645669291343
 21
-0.1387795275590546
 31
0.0
  0
LINE
  5
1CF5
330
1E
100
AcDbEntity
  8
3
100
AcDbLine
 10
-0.640748031496063
 20
0.6259842519685046
 30
0.0
 11
-0.428149606299213
 21
0.6259842519685046
 31
0.0
  0
LINE
  5
1CF6
330
1E
100
AcDbEntity
  8
3
100
AcDbLine
 10
-0.4084645669291343
 20
0.6062992125984259
 30
0.0
 11
-0.4084645669291343
 21
0.5895669291338584
 31
0.0
  0
LINE
  5
1D0D
330
1E
100
AcDbEntity
  8
3
100
AcDbLine
 10
-1.729330708661417
 20
0.5895669291338584
 30
0.0
 11
-1.517716535433071
 21
0.5895669291338584
 31
0.0
  0
LINE
  5
1D0E
330
1E
100
AcDbEntity
  8
3
100
AcDbLine
 10
-1.613188976377952
 20
0.3208661417322842
 30
0.0
 11
-1.613188976377952
 21
0.0305118110236222
 31
0.0
  0
LINE
  5
1D0F
330
1E
100
AcDbEntity
  8
3
100
AcDbLine
 10
-1.517716535433071
 20
-0.2372047244094482
 30
0.0
 11
-1.729330708661417
 21
-0.2372047244094482
 31
0.0
  0
LINE
  5
1D1C
330
1E
100
AcDbEntity
  8
3
100
AcDbLine
 10
-1.799212598425197
 20
-0.1486220472440944
 30
0.0
 11
-1.818897637795275
 21
-0.1486220472440944
 31
0.0
  0
LINE
  5
1D22
330
1E
100
AcDbEntity
  8
3
100
AcDbLine
 10
-1.828740157480314
 20
-0.1387795275590546
 30
0.0
 11
-1.828740157480314
 21
-0.0413385826771648
 31
0.0
  0
LINE
  5
1D28
330
1E
100
AcDbEntity
  8
3
100
AcDbLine
 10
-1.818897637795275
 20
-0.0314960629921259
 30
0.0
 11
-1.799212598425197
 21
-0.0314960629921259
 31
0.0
  0
LINE
  5
1D2E
330
1E
100
AcDbEntity
  8
3
100
AcDbLine
 10
-1.789370078740157
 20
-0.0206692913385824
 30
0.0
 11
-1.789370078740157
 21
-0.0019685039370074
 31
0.0
  0
LINE
  5
1D2F
330
1E
100
AcDbEntity
  8
3
100
AcDbLine
 10
-1.789370078740157
 20
-0.1771653543307083
 30
0.0
 11
-1.789370078740157
 21
-0.1594488188976371
 31
0.0
  0
LINE
  5
1D3C
330
1E
100
AcDbEntity
  8
3
100
AcDbLine
 10
-1.729330708661417
 20
0.293307086614174
 30
0.0
 11
-1.729330708661417
 21
0.0580708661417324
 31
0.0
  0
LINE
  5
1D43
330
1E
100
AcDbEntity
  8
3
100
AcDbLine
 10
-1.789370078740157
 20
0.3533464566929139
 30
0.0
 11
-1.785433070866141
 21
0.3385826771653546
 31
0.0
  0
LINE
  5
1D49
330
1E
100
AcDbEntity
  8
3
100
AcDbLine
 10
-1.789370078740157
 20
0.5108267716535435
 30
0.0
 11
-1.789370078740157
 21
0.5295275590551185
 31
0.0
  0
LINE
  5
1D4A
330
1E
100
AcDbEntity
  8
3
100
AcDbLine
 10
-1.789370078740157
 20
0.3533464566929139
 30
0.0
 11
-1.789370078740157
 21
0.3730314960629926
 31
0.0
  0
LINE
  5
1D50
330
1E
100
AcDbEntity
  8
3
100
AcDbLine
 10
-1.799212598425197
 20
0.3828740157480315
 30
0.0
 11
-1.818897637795275
 21
0.3828740157480315
 31
0.0
  0
LINE
  5
1D56
330
1E
100
AcDbEntity
  8
3
100
AcDbLine
 10
-1.828740157480314
 20
0.3927165354330713
 30
0.0
 11
-1.828740157480314
 21
0.4911417322834648
 31
0.0
  0
LINE
  5
1D5C
330
1E
100
AcDbEntity
  8
3
100
AcDbLine
 10
-1.818897637795275
 20
0.5009842519685046
 30
0.0
 11
-1.799212598425197
 21
0.5009842519685046
 31
0.0
  0
LINE
  5
1D5D
330
1E
100
AcDbEntity
  8
3
100
AcDbLine
 10
-1.498031496062992
 20
0.6259842519685046
 30
0.0
 11
-1.285433070866141
 21
0.6259842519685046
 31
0.0
  0
LINE
  5
1D5E
330
1E
100
AcDbEntity
  8
3
100
AcDbLine
 10
-1.517716535433071
 20
0.5895669291338584
 30
0.0
 11
-1.517716535433071
 21
0.6062992125984259
 31
0.0
  0
LINE
  5
1D5F
330
1E
100
AcDbEntity
  8
3
100
AcDbLine
 10
-1.517716535433071
 20
0.5895669291338584
 30
0.0
 11
-1.517716535433071
 21
0.4911417322834648
 31
0.0
  0
LINE
  5
1D60
330
1E
100
AcDbEntity
  8
3
100
AcDbLine
 10
-1.517716535433071
 20
-0.1387795275590546
 30
0.0
 11
-1.517716535433071
 21
-0.2372047244094482
 31
0.0
  0
LINE
  5
1D61
330
1E
100
AcDbEntity
  8
3
100
AcDbLine
 10
-1.567913385826771
 20
-0.1387795275590546
 30
0.0
 11
-1.517716535433071
 21
-0.1387795275590546
 31
0.0
  0
LINE
  5
1D68
330
1E
100
AcDbEntity
  8
3
100
AcDbLine
 10
-1.593503937007874
 20
0.0305118110236222
 30
0.0
 11
-1.593503937007874
 21
-0.1141732283464565
 31
0.0
  0
LINE
  5
1D69
330
1E
100
AcDbEntity
  8
3
100
AcDbLine
 10
-1.613188976377952
 20
0.0305118110236222
 30
0.0
 11
-1.593503937007874
 21
0.0305118110236222
 31
0.0
  0
LINE
  5
1D6A
330
1E
100
AcDbEntity
  8
3
100
AcDbLine
 10
-1.593503937007874
 20
0.3208661417322842
 30
0.0
 11
-1.613188976377952
 21
0.3208661417322842
 31
0.0
  0
LINE
  5
1D6B
330
1E
100
AcDbEntity
  8
3
100
AcDbLine
 10
-1.593503937007874
 20
0.465551181102363
 30
0.0
 11
-1.593503937007874
 21
0.3208661417322842
 31
0.0
  0
LINE
  5
1D72
330
1E
100
AcDbEntity
  8
3
100
AcDbLine
 10
-1.517716535433071
 20
0.4911417322834648
 30
0.0
 11
-1.567913385826771
 21
0.4911417322834648
 31
0.0
  0
LINE
  5
1D73
330
1E
100
AcDbEntity
  8
3
100
AcDbLine
 10
-1.593503937007874
 20
0.0305118110236222
 30
0.0
 11
-1.591535433070866
 21
0.0354330708661426
 31
0.0
  0
LINE
  5
1D74
330
1E
100
AcDbEntity
  8
3
100
AcDbLine
 10
-1.591535433070866
 20
0.3169291338582685
 30
0.0
 11
-1.593503937007874
 21
0.3208661417322842
 31
0.0
  0
LINE
  5
1D75
330
1E
100
AcDbEntity
  8
3
100
AcDbLine
 10
-1.285433070866141
 20
-0.273622047244094
 30
0.0
 11
-1.498031496062992
 21
-0.273622047244094
 31
0.0
  0
LINE
  5
1D76
330
1E
100
AcDbEntity
  8
3
100
AcDbLine
 10
-1.517716535433071
 20
-0.2539370078740157
 30
0.0
 11
-1.517716535433071
 21
-0.2372047244094482
 31
0.0
  0
LINE
  5
1D81
330
1E
100
AcDbEntity
  8
3
100
AcDbLine
 10
-1.079724409448818
 20
0.625
 30
0.0
 11
-1.225393700787401
 21
0.625
 31
0.0
  0
LINE
  5
1D82
330
1E
100
AcDbEntity
  8
3
100
AcDbLine
 10
-0.7007874015748033
 20
0.625
 30
0.0
 11
-0.846456692913386
 21
0.625
 31
0.0
  0
LINE
  5
1D83
330
1E
100
AcDbEntity
  8
3
100
AcDbLine
 10
-0.7007874015748033
 20
-0.2726377952755903
 30
0.0
 11
-1.225393700787401
 21
-0.2726377952755903
 31
0.0
  0
LINE
  5
1D84
330
1E
100
AcDbEntity
  8
3
100
AcDbLine
 10
-1.20767716535433
 20
0.5570866141732287
 30
0.0
 11
-1.20767716535433
 21
0.4921259842519686
 31
0.0
  0
LINE
  5
1D85
330
1E
100
AcDbEntity
  8
3
100
AcDbLine
 10
-1.275590551181102
 20
0.4921259842519686
 30
0.0
 11
-1.20767716535433
 21
0.4921259842519686
 31
0.0
  0
LINE
  5
1D86
330
1E
100
AcDbEntity
  8
3
100
AcDbLine
 10
-1.275590551181102
 20
0.4921259842519686
 30
0.0
 11
-1.275590551181102
 21
-0.1673228346456685
 31
0.0
  0
LINE
  5
1D87
330
1E
100
AcDbEntity
  8
3
100
AcDbLine
 10
-1.089566929133858
 20
0.5570866141732287
 30
0.0
 11
-1.20767716535433
 21
0.5570866141732287
 31
0.0
  0
LINE
  5
1D88
330
1E
100
AcDbEntity
  8
3
100
AcDbLine
 10
-1.065944881889763
 20
0.4694881889763787
 30
0.0
 11
-1.065944881889763
 21
0.4793307086614176
 31
0.0
  0
LINE
  5
1D89
330
1E
100
AcDbEntity
  8
3
100
AcDbLine
 10
-1.065944881889763
 20
0.4822834645669296
 30
0.0
 11
-1.065944881889763
 21
0.4793307086614176
 31
0.0
  0
LINE
  5
1D91
330
1E
100
AcDbEntity
  8
3
100
AcDbLine
 10
-1.089566929133858
 20
0.5570866141732287
 30
0.0
 11
-1.065944881889763
 21
0.5452755905511815
 31
0.0
  0
LINE
  5
1D92
330
1E
100
AcDbEntity
  8
3
100
AcDbLine
 10
-0.8366141732283466
 20
0.5570866141732287
 30
0.0
 11
-0.7185039370078741
 21
0.5570866141732287
 31
0.0
  0
LINE
  5
1D93
330
1E
100
AcDbEntity
  8
3
100
AcDbLine
 10
-0.8366141732283466
 20
0.5570866141732287
 30
0.0
 11
-0.8602362204724411
 21
0.5452755905511815
 31
0.0
  0
LINE
  5
1D94
330
1E
100
AcDbEntity
  8
3
100
AcDbLine
 10
-0.8602362204724411
 20
0.5403543307086621
 30
0.0
 11
-0.8602362204724411
 21
0.5452755905511815
 31
0.0
  0
LINE
  5
1D95
330
1E
100
AcDbEntity
  8
3
100
AcDbLine
 10
-0.8602362204724411
 20
0.518700787401575
 30
0.0
 11
-0.8602362204724411
 21
0.5403543307086621
 31
0.0
  0
LINE
  5
1D9B
330
1E
100
AcDbEntity
  8
3
100
AcDbLine
 10
-0.8602362204724411
 20
0.4822834645669296
 30
0.0
 11
-0.8602362204724411
 21
0.4793307086614176
 31
0.0
  0
LINE
  5
1D9C
330
1E
100
AcDbEntity
  8
3
100
AcDbLine
 10
-0.8602362204724411
 20
0.4694881889763787
 30
0.0
 11
-0.8602362204724411
 21
0.4793307086614176
 31
0.0
  0
LINE
  5
1D9D
330
1E
100
AcDbEntity
  8
3
100
AcDbLine
 10
-1.208661417322834
 20
0.559055118110237
 30
0.0
 11
-1.20767716535433
 21
0.5570866141732287
 31
0.0
  0
LINE
  5
1DA3
330
1E
100
AcDbEntity
  8
3
100
AcDbLine
 10
-1.276574803149606
 20
0.4931102362204732
 30
0.0
 11
-1.208661417322834
 21
0.4931102362204732
 31
0.0
  0
LINE
  5
1DA4
330
1E
100
AcDbEntity
  8
3
100
AcDbLine
 10
-1.275590551181102
 20
0.4921259842519686
 30
0.0
 11
-1.276574803149606
 21
0.4931102362204732
 31
0.0
  0
LINE
  5
1DA5
330
1E
100
AcDbEntity
  8
3
100
AcDbLine
 10
-1.276574803149606
 20
-0.1692913385826769
 30
0.0
 11
-1.276574803149606
 21
0.4931102362204732
 31
0.0
  0
LINE
  5
1DAB
330
1E
100
AcDbEntity
  8
3
100
AcDbLine
 10
-0.6505905511811028
 20
0.4921259842519686
 30
0.0
 11
-0.7185039370078741
 21
0.4921259842519686
 31
0.0
  0
LINE
  5
1DAC
330
1E
100
AcDbEntity
  8
3
100
AcDbLine
 10
-0.6505905511811028
 20
0.4921259842519686
 30
0.0
 11
-0.6496062992125986
 21
0.4931102362204732
 31
0.0
  0
LINE
  5
1DAD
330
1E
100
AcDbEntity
  8
3
100
AcDbLine
 10
-0.7185039370078741
 20
0.5570866141732287
 30
0.0
 11
-0.7185039370078741
 21
0.4921259842519686
 31
0.0
  0
LINE
  5
1DAE
330
1E
100
AcDbEntity
  8
3
100
AcDbLine
 10
-0.7165354330708662
 20
0.559055118110237
 30
0.0
 11
-0.7165354330708662
 21
0.4931102362204732
 31
0.0
  0
LINE
  5
1DAF
330
1E
100
AcDbEntity
  8
3
100
AcDbLine
 10
-0.7165354330708662
 20
0.559055118110237
 30
0.0
 11
-0.7185039370078741
 21
0.5570866141732287
 31
0.0
  0
LINE
  5
1DB0
330
1E
100
AcDbEntity
  8
3
100
AcDbLine
 10
-0.8602362204724411
 20
0.5452755905511815
 30
0.0
 11
-1.065944881889763
 21
0.5452755905511815
 31
0.0
  0
LINE
  5
1DB1
330
1E
100
AcDbEntity
  8
3
100
AcDbLine
 10
-0.7165354330708662
 20
0.559055118110237
 30
0.0
 11
-1.208661417322834
 21
0.559055118110237
 31
0.0
  0
LINE
  5
1DB2
330
1E
100
AcDbEntity
  8
3
100
AcDbLine
 10
-0.6505905511811028
 20
0.4921259842519686
 30
0.0
 11
-0.6505905511811028
 21
-0.1673228346456685
 31
0.0
  0
LINE
  5
1DB3
330
1E
100
AcDbEntity
  8
3
100
AcDbLine
 10
-0.6496062992125986
 20
-0.1692913385826769
 30
0.0
 11
-0.6496062992125986
 21
0.4931102362204732
 31
0.0
  0
LINE
  5
1DCF
330
1E
100
AcDbEntity
  8
3
100
AcDbLine
 10
-0.7007874015748033
 20
-0.2726377952755903
 30
0.0
 11
-0.678149606299213
 21
-0.2726377952755903
 31
0.0
  0
LINE
  5
1DE3
330
1E
100
AcDbEntity
  8
3
100
AcDbLine
 10
-1.079724409448818
 20
0.625
 30
0.0
 11
-0.846456692913386
 21
0.625
 31
0.0
  0
LINE
  5
1DFD
330
1E
100
AcDbEntity
  8
3
100
AcDbLine
 10
-1.517716535433071
 20
-0.1387795275590546
 30
0.0
 11
-1.515748031496063
 21
-0.1368110236220472
 31
0.0
  0
LINE
  5
1E11
330
1E
100
AcDbEntity
  8
3
100
AcDbLine
 10
-1.591535433070866
 20
0.0354330708661426
 30
0.0
 11
-1.591535433070866
 21
0.3169291338582685
 31
0.0
  0
LINE
  5
1E1D
330
1E
100
AcDbEntity
  8
3
100
AcDbLine
 10
-0.3336614173228347
 20
0.0354330708661426
 30
0.0
 11
-0.332677165354331
 21
0.0305118110236222
 31
0.0
  0
LINE
  5
1E1E
330
1E
100
AcDbEntity
  8
3
100
AcDbLine
 10
-0.3336614173228347
 20
0.3169291338582685
 30
0.0
 11
-0.3336614173228347
 21
0.0354330708661426
 31
0.0
  0
LINE
  5
1E1F
330
1E
100
AcDbEntity
  8
3
100
AcDbLine
 10
-0.332677165354331
 20
0.3208661417322842
 30
0.0
 11
-0.3336614173228347
 21
0.3169291338582685
 31
0.0
  0
LINE
  5
1E2B
330
1E
100
AcDbEntity
  8
3
100
AcDbLine
 10
-0.4104330708661422
 20
-0.1171259842519685
 30
0.0
 11
-0.4104330708661422
 21
0.4685039370078741
 31
0.0
  0
LINE
  5
1E37
330
1E
100
AcDbEntity
  8
3
100
AcDbLine
 10
-0.4084645669291343
 20
-0.1387795275590546
 30
0.0
 11
-0.4104330708661422
 21
-0.1368110236220472
 31
0.0
  0
LINE
  5
1E38
330
1E
100
AcDbEntity
  8
3
100
AcDbLine
 10
-0.4084645669291343
 20
0.6062992125984259
 30
0.0
 11
-0.4133858267716537
 21
0.6003937007874019
 31
0.0
  0
LINE
  5
1E4E
330
1E
100
AcDbEntity
  8
3
100
AcDbLine
 10
-0.3356299212598426
 20
-0.1112204724409445
 30
0.0
 11
-0.3385826771653546
 21
-0.1240157480314954
 31
0.0
  0
LINE
  5
1E9C
330
1E
100
AcDbEntity
  8
3
100
AcDbLine
 10
-0.8602362204724411
 20
0.4694881889763787
 30
0.0
 11
-1.065944881889763
 21
0.4694881889763787
 31
0.0
  0
LINE
  5
1E9D
330
1E
100
AcDbEntity
  8
3
100
AcDbLine
 10
-0.8602362204724411
 20
0.4793307086614176
 30
0.0
 11
-1.065944881889763
 21
0.4793307086614176
 31
0.0
  0
LINE
  5
1E9E
330
1E
100
AcDbEntity
  8
3
100
AcDbLine
 10
-0.8602362204724411
 20
0.4793307086614176
 30
0.0
 11
-1.065944881889763
 21
0.4793307086614176
 31
0.0
  0
LINE
  5
1E9F
330
1E
100
AcDbEntity
  8
3
100
AcDbLine
 10
-0.8602362204724411
 20
0.4793307086614176
 30
0.0
 11
-1.065944881889763
 21
0.4793307086614176
 31
0.0
  0
LINE
  5
1EA0
330
1E
100
AcDbEntity
  8
3
100
AcDbLine
 10
-0.8602362204724411
 20
0.4822834645669296
 30
0.0
 11
-1.065944881889763
 21
0.4822834645669296
 31
0.0
  0
LINE
  5
1EA1
330
1E
100
AcDbEntity
  8
3
100
AcDbLine
 10
-0.8602362204724411
 20
0.518700787401575
 30
0.0
 11
-1.064960629921259
 21
0.518700787401575
 31
0.0
  0
LINE
  5
1EA2
330
1E
100
AcDbEntity
  8
3
100
AcDbLine
 10
-0.8602362204724411
 20
0.5403543307086621
 30
0.0
 11
-1.064960629921259
 21
0.5403543307086621
 31
0.0
  0
LINE
  5
1ECB
330
1E
100
AcDbEntity
  8
3
100
AcDbLine
 10
-0.875984251968504
 20
-0.1683070866141731
 30
0.0
 11
-0.875984251968504
 21
-0.1289370078740157
 31
0.0
  0
LINE
  5
1ECC
330
1E
100
AcDbEntity
  8
3
100
AcDbLine
 10
-1.0501968503937
 20
-0.1289370078740157
 30
0.0
 11
-0.875984251968504
 21
-0.1289370078740157
 31
0.0
  0
LINE
  5
1ECD
330
1E
100
AcDbEntity
  8
3
100
AcDbLine
 10
-1.0501968503937
 20
-0.1683070866141731
 30
0.0
 11
-1.0501968503937
 21
-0.1289370078740157
 31
0.0
  0
LINE
  5
1ECE
330
1E
100
AcDbEntity
  8
3
100
AcDbLine
 10
-0.8681102362204725
 20
2.520669291338583
 30
0.0
 11
-1.058070866141732
 21
2.520669291338583
 31
0.0
  0
LINE
  5
1ED9
330
1E
100
AcDbEntity
  8
3
100
AcDbLine
 10
-1.590551181102362
 20
2.038385826771653
 30
0.0
 11
-1.590551181102362
 21
2.037401574803149
 31
0.0
  0
LINE
  5
1F03
330
1E
100
AcDbEntity
  8
3
100
AcDbLine
 10
-0.1289370078740157
 20
2.21259842519685
 30
0.0
 11
-0.1269685039370079
 21
2.21259842519685
 31
0.0
  0
LINE
  5
1F04
330
1E
100
AcDbEntity
  8
3
100
AcDbLine
 10
-0.1082677165354333
 20
2.21259842519685
 30
0.0
 11
-0.1269685039370079
 21
2.21259842519685
 31
0.0
  0
LINE
  5
1F0A
330
1E
100
AcDbEntity
  8
3
100
AcDbLine
 10
-0.4301181102362209
 20
2.296259842519685
 30
0.0
 11
-0.6387795275590551
 21
2.296259842519685
 31
0.0
  0
LINE
  5
1F10
330
1E
100
AcDbEntity
  8
3
100
AcDbLine
 10
-0.1988188976377954
 20
2.296259842519685
 30
0.0
 11
-0.4104330708661422
 21
2.296259842519685
 31
0.0
  0
LINE
  5
1F24
330
1E
100
AcDbEntity
  8
3
100
AcDbLine
 10
-0.1387795275590551
 20
2.296259842519685
 30
0.0
 11
-0.1368110236220472
 21
2.176181102362205
 31
0.0
  0
LINE
  5
1F35
330
1E
100
AcDbEntity
  8
3
100
AcDbLine
 10
-0.098425196850394
 20
2.21259842519685
 30
0.0
 11
-0.0974409448818898
 21
2.176181102362205
 31
0.0
  0
LINE
  5
1F3B
330
1E
100
AcDbEntity
  8
3
100
AcDbLine
 10
-0.640748031496063
 20
2.176181102362205
 30
0.0
 11
-0.6387795275590551
 21
2.296259842519685
 31
0.0
  0
LINE
  5
1F4D
330
1E
100
AcDbEntity
  8
3
100
AcDbLine
 10
-1.799212598425197
 20
2.21259842519685
 30
0.0
 11
-1.797244094488189
 21
2.21259842519685
 31
0.0
  0
LINE
  5
1F53
330
1E
100
AcDbEntity
  8
3
100
AcDbLine
 10
-1.799212598425197
 20
2.21259842519685
 30
0.0
 11
-1.817913385826771
 21
2.21259842519685
 31
0.0
  0
LINE
  5
1F59
330
1E
100
AcDbEntity
  8
3
100
AcDbLine
 10
-1.287401574803149
 20
2.296259842519685
 30
0.0
 11
-1.496062992125984
 21
2.296259842519685
 31
0.0
  0
LINE
  5
1F61
330
1E
100
AcDbEntity
  8
3
100
AcDbLine
 10
-1.515748031496063
 20
2.296259842519685
 30
0.0
 11
-1.727362204724409
 21
2.296259842519685
 31
0.0
  0
LINE
  5
1F62
330
1E
100
AcDbEntity
  8
3
100
AcDbLine
 10
-1.799212598425197
 20
2.176181102362205
 30
0.0
 11
-1.799212598425197
 21
2.21259842519685
 31
0.0
  0
LINE
  5
1F68
330
1E
100
AcDbEntity
  8
3
100
AcDbLine
 10
-1.789370078740157
 20
2.176181102362205
 30
0.0
 11
-1.787401574803149
 21
2.296259842519685
 31
0.0
  0
LINE
  5
1F75
330
1E
100
AcDbEntity
  8
3
100
AcDbLine
 10
-1.828740157480314
 20
2.176181102362205
 30
0.0
 11
-1.827755905511811
 21
2.21259842519685
 31
0.0
  0
LINE
  5
1F85
330
1E
100
AcDbEntity
  8
3
100
AcDbLine
 10
-1.287401574803149
 20
2.296259842519685
 30
0.0
 11
-1.285433070866141
 21
2.176181102362205
 31
0.0
  0
LINE
  5
1F86
330
1E
100
AcDbEntity
  8
3
100
AcDbLine
 10
-1.517716535433071
 20
2.176181102362205
 30
0.0
 11
-1.515748031496063
 21
2.296259842519685
 31
0.0
  0
LINE
  5
1F87
330
1E
100
AcDbEntity
  8
3
100
AcDbLine
 10
-1.285433070866141
 20
2.176181102362205
 30
0.0
 11
-1.285433070866141
 21
2.170275590551181
 31
0.0
  0
LINE
  5
1F8D
330
1E
100
AcDbEntity
  8
3
100
AcDbLine
 10
-1.079724409448818
 20
2.111220472440945
 30
0.0
 11
-1.225393700787401
 21
2.111220472440945
 31
0.0
  0
LINE
  5
1F8E
330
1E
100
AcDbEntity
  8
3
100
AcDbLine
 10
-0.7007874015748033
 20
2.111220472440945
 30
0.0
 11
-0.846456692913386
 21
2.111220472440945
 31
0.0
  0
LINE
  5
1F8F
330
1E
100
AcDbEntity
  8
3
100
AcDbLine
 10
-1.079724409448818
 20
2.111220472440945
 30
0.0
 11
-1.06003937007874
 21
2.481299212598425
 31
0.0
  0
LINE
  5
1F9C
330
1E
100
AcDbEntity
  8
3
100
AcDbLine
 10
-0.846456692913386
 20
2.111220472440945
 30
0.0
 11
-0.8651574803149607
 21
2.481299212598425
 31
0.0
  0
LINE
  5
1FB0
330
1E
100
AcDbEntity
  8
3
100
AcDbLine
 10
-1.079724409448818
 20
2.111220472440945
 30
0.0
 11
-0.846456692913386
 21
2.111220472440945
 31
0.0
  0
LINE
  5
1FB8
330
1E
100
AcDbEntity
  8
3
100
AcDbLine
 10
-1.512795275590551
 20
1.875984251968504
 30
0.0
 11
-1.517716535433071
 21
2.176181102362205
 31
0.0
  0
LINE
  5
1FB9
330
1E
100
AcDbEntity
  8
3
100
AcDbLine
 10
-1.515748031496063
 20
2.018700787401574
 30
0.0
 11
-1.565944881889763
 21
2.018700787401574
 31
0.0
  0
LINE
  5
1FBA
330
1E
100
AcDbEntity
  8
3
100
AcDbLine
 10
-1.590551181102362
 20
2.038385826771653
 30
0.0
 11
-1.593503937007874
 21
2.176181102362205
 31
0.0
  0
LINE
  5
1FC0
330
1E
100
AcDbEntity
  8
3
100
AcDbLine
 10
-0.332677165354331
 20
2.176181102362205
 30
0.0
 11
-0.3356299212598426
 21
2.038385826771653
 31
0.0
  0
LINE
  5
1FCB
330
1E
100
AcDbEntity
  8
3
100
AcDbLine
 10
-0.4084645669291343
 20
2.176181102362205
 30
0.0
 11
-0.4133858267716537
 21
1.875984251968504
 31
0.0
  0
LINE
  5
1FCC
330
1E
100
AcDbEntity
  8
3
100
AcDbLine
 10
-0.8651574803149607
 20
2.481299212598425
 30
0.0
 11
-1.06003937007874
 21
2.481299212598425
 31
0.0
  0
LINE
  5
1FDF
330
1E
100
AcDbEntity
  8
3
100
AcDbLine
 10
-1.565944881889763
 20
2.024606299212599
 30
0.0
 11
-1.565944881889763
 21
2.018700787401574
 31
0.0
  0
LINE
  5
1FF5
330
1E
100
AcDbEntity
  8
3
100
AcDbLine
 10
1.239173228346456
 20
0.6210629921259843
 30
0.0
 11
1.444881889763779
 21
0.6230314960629926
 31
0.0
  0
LINE
  5
1FF6
330
1E
100
AcDbEntity
  8
3
100
AcDbLine
 10
1.224409448818897
 20
0.6003937007874019
 30
0.0
 11
1.224409448818897
 21
0.5610236220472445
 31
0.0
  0
LINE
  5
2040
330
1E
100
AcDbEntity
  8
3
100
AcDbLine
 10
1.575787401574803
 20
-0.1387795275590546
 30
0.0
 11
1.575787401574803
 21
-0.0413385826771648
 31
0.0
  0
LINE
  5
2046
330
1E
100
AcDbEntity
  8
3
100
AcDbLine
 10
1.575787401574803
 20
-0.0314960629921259
 30
0.0
 11
1.575787401574803
 21
-0.0305118110236213
 31
0.0
  0
LINE
  5
2056
330
1E
100
AcDbEntity
  8
3
100
AcDbLine
 10
1.583661417322834
 20
-0.0216535433070861
 30
0.0
 11
1.583661417322834
 21
-0.1584645669291333
 31
0.0
  0
LINE
  5
2065
330
1E
100
AcDbEntity
  8
3
100
AcDbLine
 10
1.583661417322834
 20
0.5098425196850398
 30
0.0
 11
1.583661417322834
 21
0.3740157480314963
 31
0.0
  0
LINE
  5
2066
330
1E
100
AcDbEntity
  8
3
100
AcDbLine
 10
1.575787401574803
 20
0.3838582677165361
 30
0.0
 11
1.575787401574803
 21
0.3828740157480315
 31
0.0
  0
LINE
  5
206D
330
1E
100
AcDbEntity
  8
3
100
AcDbLine
 10
1.575787401574803
 20
0.393700787401575
 30
0.0
 11
1.575787401574803
 21
0.4901574803149611
 31
0.0
  0
LINE
  5
2078
330
1E
100
AcDbEntity
  8
3
100
AcDbLine
 10
1.659448818897637
 20
0.5875984251968509
 30
0.0
 11
1.659448818897637
 21
0.6043307086614176
 31
0.0
  0
LINE
  5
2080
330
1E
100
AcDbEntity
  8
3
100
AcDbLine
 10
1.659448818897637
 20
0.3553149606299213
 30
0.0
 11
1.659448818897637
 21
0.5275590551181111
 31
0.0
  0
LINE
  5
2090
330
1E
100
AcDbEntity
  8
3
100
AcDbLine
 10
1.659448818897637
 20
0.0118110236220472
 30
0.0
 11
1.659448818897637
 21
-0.0039370078740157
 31
0.0
  0
LINE
  5
2091
330
1E
100
AcDbEntity
  8
3
100
AcDbLine
 10
1.659448818897637
 20
-0.1751968503937
 30
0.0
 11
1.659448818897637
 21
-0.0039370078740157
 31
0.0
  0
LINE
  5
2099
330
1E
100
AcDbEntity
  8
3
100
AcDbLine
 10
1.659448818897637
 20
-0.2519685039370074
 30
0.0
 11
1.659448818897637
 21
-0.2352362204724407
 31
0.0
  0
LINE
  5
209F
330
1E
100
AcDbEntity
  8
3
100
AcDbLine
 10
1.539370078740156
 20
0.3927165354330713
 30
0.0
 11
1.575787401574803
 21
0.393700787401575
 31
0.0
  0
LINE
  5
20A5
330
1E
100
AcDbEntity
  8
3
100
AcDbLine
 10
1.575787401574803
 20
0.3838582677165361
 30
0.0
 11
1.539370078740156
 21
0.3828740157480315
 31
0.0
  0
LINE
  5
20AB
330
1E
100
AcDbEntity
  8
3
100
AcDbLine
 10
1.583661417322834
 20
0.3740157480314963
 30
0.0
 11
1.539370078740156
 21
0.3730314960629926
 31
0.0
  0
LINE
  5
20AC
330
1E
100
AcDbEntity
  8
3
100
AcDbLine
 10
1.539370078740156
 20
0.3533464566929139
 30
0.0
 11
1.659448818897637
 21
0.3553149606299213
 31
0.0
  0
LINE
  5
20B3
330
1E
100
AcDbEntity
  8
3
100
AcDbLine
 10
1.659448818897637
 20
0.3257874015748037
 30
0.0
 11
1.539370078740156
 21
0.3238188976377954
 31
0.0
  0
LINE
  5
20BA
330
1E
100
AcDbEntity
  8
3
100
AcDbLine
 10
1.659448818897637
 20
0.2952755905511815
 30
0.0
 11
1.539370078740156
 21
0.293307086614174
 31
0.0
  0
LINE
  5
20BB
330
1E
100
AcDbEntity
  8
3
100
AcDbLine
 10
1.539370078740156
 20
0.0580708661417324
 30
0.0
 11
1.539370078740156
 21
0.293307086614174
 31
0.0
  0
LINE
  5
20BC
330
1E
100
AcDbEntity
  8
3
100
AcDbLine
 10
1.539370078740156
 20
0.0580708661417324
 30
0.0
 11
1.659448818897637
 21
0.056102362204725
 31
0.0
  0
LINE
  5
20C3
330
1E
100
AcDbEntity
  8
3
100
AcDbLine
 10
1.539370078740156
 20
0.0285433070866148
 30
0.0
 11
1.659448818897637
 21
0.0265748031496065
 31
0.0
  0
LINE
  5
20CA
330
1E
100
AcDbEntity
  8
3
100
AcDbLine
 10
1.659448818897637
 20
-0.0039370078740157
 30
0.0
 11
1.539370078740156
 21
-0.0019685039370074
 31
0.0
  0
LINE
  5
20CB
330
1E
100
AcDbEntity
  8
3
100
AcDbLine
 10
1.539370078740156
 20
-0.0206692913385824
 30
0.0
 11
1.583661417322834
 21
-0.0216535433070861
 31
0.0
  0
LINE
  5
20D1
330
1E
100
AcDbEntity
  8
3
100
AcDbLine
 10
1.539370078740156
 20
-0.0314960629921259
 30
0.0
 11
1.575787401574803
 21
-0.0314960629921259
 31
0.0
  0
LINE
  5
20E2
330
1E
100
AcDbEntity
  8
3
100
AcDbLine
 10
1.575787401574803
 20
-0.1486220472440944
 30
0.0
 11
1.539370078740156
 21
-0.1486220472440944
 31
0.0
  0
LINE
  5
20E3
330
1E
100
AcDbEntity
  8
3
100
AcDbLine
 10
1.539370078740156
 20
-0.1594488188976371
 30
0.0
 11
1.539370078740156
 21
-0.1515748031496056
 31
0.0
  0
LINE
  5
20E4
330
1E
100
AcDbEntity
  8
3
100
AcDbLine
 10
1.539370078740156
 20
-0.1515748031496056
 30
0.0
 11
1.539370078740156
 21
-0.1486220472440944
 31
0.0
  0
LINE
  5
20EB
330
1E
100
AcDbEntity
  8
3
100
AcDbLine
 10
1.539370078740156
 20
-0.0019685039370074
 30
0.0
 11
1.539370078740156
 21
-0.0206692913385824
 31
0.0
  0
LINE
  5
20F3
330
1E
100
AcDbEntity
  8
3
100
AcDbLine
 10
1.659448818897637
 20
-0.2352362204724407
 30
0.0
 11
1.539370078740156
 21
-0.2372047244094482
 31
0.0
  0
LINE
  5
20F4
330
1E
100
AcDbEntity
  8
3
100
AcDbLine
 10
1.539370078740156
 20
0.5895669291338584
 30
0.0
 11
1.659448818897637
 21
0.5875984251968509
 31
0.0
  0
LINE
  5
20FC
330
1E
100
AcDbEntity
  8
3
100
AcDbLine
 10
1.659448818897637
 20
0.5275590551181111
 30
0.0
 11
1.539370078740156
 21
0.5295275590551185
 31
0.0
  0
LINE
  5
20FD
330
1E
100
AcDbEntity
  8
3
100
AcDbLine
 10
1.539370078740156
 20
0.3730314960629926
 30
0.0
 11
1.539370078740156
 21
0.3533464566929139
 31
0.0
  0
LINE
  5
2108
330
1E
100
AcDbEntity
  8
3
100
AcDbLine
 10
1.539370078740156
 20
0.5009842519685046
 30
0.0
 11
1.575787401574803
 21
0.5
 31
0.0
  0
LINE
  5
2113
330
1E
100
AcDbEntity
  8
3
100
AcDbLine
 10
1.659448818897637
 20
-0.2716535433070861
 30
0.0
 11
1.539370078740156
 21
-0.273622047244094
 31
0.0
  0
LINE
  5
2119
330
1E
100
AcDbEntity
  8
3
100
AcDbLine
 10
1.539370078740156
 20
0.6259842519685046
 30
0.0
 11
1.659448818897637
 21
0.6240157480314963
 31
0.0
  0
LINE
  5
2129
330
1E
100
AcDbEntity
  8
3
100
AcDbLine
 10
1.659448818897637
 20
0.5472440944881898
 30
0.0
 11
1.743110236220471
 21
0.5452755905511815
 31
0.0
  0
LINE
  5
212A
330
1E
100
AcDbEntity
  8
3
100
AcDbLine
 10
1.748031496062992
 20
0.5403543307086621
 30
0.0
 11
1.743110236220471
 21
0.5452755905511815
 31
0.0
  0
LINE
  5
212B
330
1E
100
AcDbEntity
  8
3
100
AcDbLine
 10
1.748031496062992
 20
0.518700787401575
 30
0.0
 11
1.748031496062992
 21
0.5403543307086621
 31
0.0
  0
LINE
  5
212C
330
1E
100
AcDbEntity
  8
3
100
AcDbLine
 10
1.737204724409448
 20
0.4822834645669296
 30
0.0
 11
1.746062992125983
 21
0.5
 31
0.0
  0
LINE
  5
212D
330
1E
100
AcDbEntity
  8
3
100
AcDbLine
 10
1.746062992125983
 20
0.5
 30
0.0
 11
1.748031496062992
 21
0.518700787401575
 31
0.0
  0
LINE
  5
212E
330
1E
100
AcDbEntity
  8
3
100
AcDbLine
 10
1.737204724409448
 20
0.4822834645669296
 30
0.0
 11
1.736220472440944
 21
0.4793307086614176
 31
0.0
  0
LINE
  5
212F
330
1E
100
AcDbEntity
  8
3
100
AcDbLine
 10
1.736220472440944
 20
0.4694881889763787
 30
0.0
 11
1.736220472440944
 21
0.4793307086614176
 31
0.0
  0
LINE
  5
2130
330
1E
100
AcDbEntity
  8
3
100
AcDbLine
 10
1.736220472440944
 20
0.4694881889763787
 30
0.0
 11
1.778543307086614
 21
0.4724409448818899
 31
0.0
  0
LINE
  5
2131
330
1E
100
AcDbEntity
  8
3
100
AcDbLine
 10
1.869094488188976
 20
0.5472440944881898
 30
0.0
 11
1.778543307086614
 21
0.4724409448818899
 31
0.0
  0
LINE
  5
213D
330
1E
100
AcDbEntity
  8
3
100
AcDbLine
 10
1.659448818897637
 20
0.6220472440944889
 30
0.0
 11
1.844488188976377
 21
0.6181102362204732
 31
0.0
  0
LINE
  5
2143
330
1E
100
AcDbEntity
  8
3
100
AcDbLine
 10
1.539370078740156
 20
-0.273622047244094
 30
0.0
 11
1.239173228346456
 21
-0.2687007874015745
 31
0.0
  0
LINE
  5
2144
330
1E
100
AcDbEntity
  8
3
100
AcDbLine
 10
1.239173228346456
 20
0.6210629921259843
 30
0.0
 11
1.539370078740156
 21
0.6259842519685046
 31
0.0
  0
LINE
  5
214B
330
1E
100
AcDbEntity
  8
3
100
AcDbLine
 10
1.482283464566929
 20
0.0354330708661426
 30
0.0
 11
1.539370078740156
 21
0.0305118110236222
 31
0.0
  0
LINE
  5
214C
330
1E
100
AcDbEntity
  8
3
100
AcDbLine
 10
1.482283464566929
 20
0.3169291338582685
 30
0.0
 11
1.482283464566929
 21
0.0354330708661426
 31
0.0
  0
LINE
  5
214D
330
1E
100
AcDbEntity
  8
3
100
AcDbLine
 10
1.539370078740156
 20
0.3208661417322842
 30
0.0
 11
1.482283464566929
 21
0.3169291338582685
 31
0.0
  0
LINE
  5
214E
330
1E
100
AcDbEntity
  8
3
100
AcDbLine
 10
1.401574803149606
 20
0.4881889763779528
 30
0.0
 11
1.539370078740156
 21
0.4911417322834648
 31
0.0
  0
LINE
  5
2154
330
1E
100
AcDbEntity
  8
3
100
AcDbLine
 10
1.539370078740156
 20
-0.1387795275590546
 30
0.0
 11
1.401574803149606
 21
-0.1368110236220472
 31
0.0
  0
LINE
  5
2155
330
1E
100
AcDbEntity
  8
3
100
AcDbLine
 10
1.539370078740156
 20
0.6062992125984259
 30
0.0
 11
1.444881889763779
 21
0.6043307086614176
 31
0.0
  0
LINE
  5
217E
330
1E
100
AcDbEntity
  8
3
100
AcDbLine
 10
1.239173228346456
 20
-0.2490157480314954
 30
0.0
 11
1.228346456692913
 21
-0.2490157480314954
 31
0.0
  0
LINE
  5
217F
330
1E
100
AcDbEntity
  8
3
100
AcDbLine
 10
1.228346456692913
 20
-0.2490157480314954
 30
0.0
 11
1.224409448818897
 21
-0.2490157480314954
 31
0.0
  0
LINE
  5
2180
330
1E
100
AcDbEntity
  8
3
100
AcDbLine
 10
1.239173228346456
 20
-0.2490157480314954
 30
0.0
 11
1.239173228346456
 21
-0.2627952755905509
 31
0.0
  0
LINE
  5
2181
330
1E
100
AcDbEntity
  8
3
100
AcDbLine
 10
1.239173228346456
 20
-0.2627952755905509
 30
0.0
 11
1.239173228346456
 21
-0.2687007874015745
 31
0.0
  0
LINE
  5
2182
330
1E
100
AcDbEntity
  8
3
100
AcDbLine
 10
1.381889763779527
 20
0.4635826771653547
 30
0.0
 11
1.387795275590551
 21
0.4635826771653547
 31
0.0
  0
LINE
  5
2183
330
1E
100
AcDbEntity
  8
3
100
AcDbLine
 10
1.387795275590551
 20
0.4635826771653547
 30
0.0
 11
1.401574803149606
 21
0.4635826771653547
 31
0.0
  0
LINE
  5
2184
330
1E
100
AcDbEntity
  8
3
100
AcDbLine
 10
1.381889763779527
 20
-0.1112204724409445
 30
0.0
 11
1.387795275590551
 21
-0.1112204724409445
 31
0.0
  0
LINE
  5
2185
330
1E
100
AcDbEntity
  8
3
100
AcDbLine
 10
1.387795275590551
 20
-0.1112204724409445
 30
0.0
 11
1.401574803149606
 21
-0.1112204724409445
 31
0.0
  0
LINE
  5
2186
330
1E
100
AcDbEntity
  8
3
100
AcDbLine
 10
1.401574803149606
 20
-0.1112204724409445
 30
0.0
 11
1.401574803149606
 21
-0.1240157480314954
 31
0.0
  0
LINE
  5
2187
330
1E
100
AcDbEntity
  8
3
100
AcDbLine
 10
1.401574803149606
 20
-0.1240157480314954
 30
0.0
 11
1.401574803149606
 21
-0.1328740157480315
 31
0.0
  0
LINE
  5
2188
330
1E
100
AcDbEntity
  8
3
100
AcDbLine
 10
1.401574803149606
 20
-0.1328740157480315
 30
0.0
 11
1.401574803149606
 21
-0.1368110236220472
 31
0.0
  0
LINE
  5
2189
330
1E
100
AcDbEntity
  8
3
100
AcDbLine
 10
1.401574803149606
 20
0.4881889763779528
 30
0.0
 11
1.401574803149606
 21
0.4852362204724417
 31
0.0
  0
LINE
  5
218A
330
1E
100
AcDbEntity
  8
3
100
AcDbLine
 10
1.401574803149606
 20
0.4852362204724417
 30
0.0
 11
1.401574803149606
 21
0.4763779527559056
 31
0.0
  0
LINE
  5
218B
330
1E
100
AcDbEntity
  8
3
100
AcDbLine
 10
1.401574803149606
 20
0.4763779527559056
 30
0.0
 11
1.401574803149606
 21
0.4635826771653547
 31
0.0
  0
LINE
  5
218C
330
1E
100
AcDbEntity
  8
3
100
AcDbLine
 10
1.239173228346456
 20
0.5620078740157482
 30
0.0
 11
1.239173228346456
 21
-0.2490157480314954
 31
0.0
  0
LINE
  5
218D
330
1E
100
AcDbEntity
  8
3
100
AcDbLine
 10
1.239173228346456
 20
-0.2490157480314954
 30
0.0
 11
1.539370078740156
 21
-0.2539370078740157
 31
0.0
  0
LINE
  5
218E
330
1E
100
AcDbEntity
  8
3
100
AcDbLine
 10
1.381889763779527
 20
-0.1171259842519685
 30
0.0
 11
1.381889763779527
 21
-0.1112204724409445
 31
0.0
  0
LINE
  5
218F
330
1E
100
AcDbEntity
  8
3
100
AcDbLine
 10
1.381889763779527
 20
-0.1112204724409445
 30
0.0
 11
1.381889763779527
 21
0.4635826771653547
 31
0.0
  0
LINE
  5
2190
330
1E
100
AcDbEntity
  8
3
100
AcDbLine
 10
1.539370078740156
 20
0.465551181102363
 30
0.0
 11
1.401574803149606
 21
0.4635826771653547
 31
0.0
  0
LINE
  5
2191
330
1E
100
AcDbEntity
  8
3
100
AcDbLine
 10
1.401574803149606
 20
0.4635826771653547
 30
0.0
 11
1.401574803149606
 21
-0.1112204724409445
 31
0.0
  0
LINE
  5
2192
330
1E
100
AcDbEntity
  8
3
100
AcDbLine
 10
1.401574803149606
 20
-0.1112204724409445
 30
0.0
 11
1.539370078740156
 21
-0.1141732283464565
 31
0.0
  0
LINE
  5
2193
330
1E
100
AcDbEntity
  8
3
100
AcDbLine
 10
1.224409448818897
 20
-0.2539370078740157
 30
0.0
 11
1.224409448818897
 21
-0.2490157480314954
 31
0.0
  0
LINE
  5
2194
330
1E
100
AcDbEntity
  8
3
100
AcDbLine
 10
1.224409448818897
 20
-0.2490157480314954
 30
0.0
 11
1.224409448818897
 21
0.6003937007874019
 31
0.0
  0
LINE
  5
2195
330
1E
100
AcDbEntity
  8
3
100
AcDbLine
 10
1.883858267716535
 20
0.5816929133858269
 30
0.0
 11
1.876968503937007
 21
0.6003937007874019
 31
0.0
  0
LINE
  5
2196
330
1E
100
AcDbEntity
  8
3
100
AcDbLine
 10
1.876968503937007
 20
0.6003937007874019
 30
0.0
 11
1.863188976377952
 21
0.6131889763779528
 31
0.0
  0
LINE
  5
2197
330
1E
100
AcDbEntity
  8
3
100
AcDbLine
 10
1.863188976377952
 20
0.6131889763779528
 30
0.0
 11
1.844488188976377
 21
0.6181102362204732
 31
0.0
  0
LINE
  5
2198
330
1E
100
AcDbEntity
  8
3
100
AcDbLine
 10
1.869094488188976
 20
0.5472440944881898
 30
0.0
 11
1.880905511811023
 21
0.5629921259842528
 31
0.0
  0
LINE
  5
2199
330
1E
100
AcDbEntity
  8
3
100
AcDbLine
 10
1.880905511811023
 20
0.5629921259842528
 30
0.0
 11
1.883858267716535
 21
0.5816929133858269
 31
0.0
  0
LINE
  5
219A
330
1E
100
AcDbEntity
  8
3
100
AcDbLine
 10
1.539370078740156
 20
-0.273622047244094
 30
0.0
 11
1.539370078740156
 21
-0.2677165354330704
 31
0.0
  0
LINE
  5
219B
330
1E
100
AcDbEntity
  8
3
100
AcDbLine
 10
1.539370078740156
 20
-0.2677165354330704
 30
0.0
 11
1.539370078740156
 21
-0.2539370078740157
 31
0.0
  0
LINE
  5
219C
330
1E
100
AcDbEntity
  8
3
100
AcDbLine
 10
1.539370078740156
 20
0.6062992125984259
 30
0.0
 11
1.539370078740156
 21
0.6200787401574806
 31
0.0
  0
LINE
  5
219D
330
1E
100
AcDbEntity
  8
3
100
AcDbLine
 10
1.539370078740156
 20
0.6200787401574806
 30
0.0
 11
1.539370078740156
 21
0.6259842519685046
 31
0.0
  0
LINE
  5
219E
330
1E
100
AcDbEntity
  8
3
100
AcDbLine
 10
1.659448818897637
 20
0.6043307086614176
 30
0.0
 11
1.539370078740156
 21
0.6062992125984259
 31
0.0
  0
LINE
  5
219F
330
1E
100
AcDbEntity
  8
3
100
AcDbLine
 10
1.539370078740156
 20
0.6062992125984259
 30
0.0
 11
1.539370078740156
 21
0.5895669291338584
 31
0.0
  0
LINE
  5
21A0
330
1E
100
AcDbEntity
  8
3
100
AcDbLine
 10
1.539370078740156
 20
-0.2372047244094482
 30
0.0
 11
1.539370078740156
 21
-0.2539370078740157
 31
0.0
  0
LINE
  5
21A1
330
1E
100
AcDbEntity
  8
3
100
AcDbLine
 10
1.539370078740156
 20
-0.2539370078740157
 30
0.0
 11
1.659448818897637
 21
-0.2519685039370074
 31
0.0
  0
LINE
  5
21A2
330
1E
100
AcDbEntity
  8
3
100
AcDbLine
 10
1.575787401574803
 20
0.4901574803149611
 30
0.0
 11
1.539370078740156
 21
0.4911417322834648
 31
0.0
  0
LINE
  5
21A3
330
1E
100
AcDbEntity
  8
3
100
AcDbLine
 10
1.539370078740156
 20
0.4911417322834648
 30
0.0
 11
1.539370078740156
 21
0.3927165354330713
 31
0.0
  0
LINE
  5
21A4
330
1E
100
AcDbEntity
  8
3
100
AcDbLine
 10
1.539370078740156
 20
0.4911417322834648
 30
0.0
 11
1.539370078740156
 21
0.4980314960629926
 31
0.0
  0
LINE
  5
21A5
330
1E
100
AcDbEntity
  8
3
100
AcDbLine
 10
1.539370078740156
 20
0.4980314960629926
 30
0.0
 11
1.539370078740156
 21
0.5009842519685046
 31
0.0
  0
LINE
  5
21A6
330
1E
100
AcDbEntity
  8
3
100
AcDbLine
 10
1.539370078740156
 20
0.5009842519685046
 30
0.0
 11
1.539370078740156
 21
0.5039370078740158
 31
0.0
  0
LINE
  5
21A7
330
1E
100
AcDbEntity
  8
3
100
AcDbLine
 10
1.539370078740156
 20
0.5039370078740158
 30
0.0
 11
1.539370078740156
 21
0.5108267716535435
 31
0.0
  0
LINE
  5
21A8
330
1E
100
AcDbEntity
  8
3
100
AcDbLine
 10
1.539370078740156
 20
0.5295275590551185
 30
0.0
 11
1.539370078740156
 21
0.5108267716535435
 31
0.0
  0
LINE
  5
21A9
330
1E
100
AcDbEntity
  8
3
100
AcDbLine
 10
1.539370078740156
 20
0.5108267716535435
 30
0.0
 11
1.583661417322834
 21
0.5098425196850398
 31
0.0
  0
LINE
  5
21AA
330
1E
100
AcDbEntity
  8
3
100
AcDbLine
 10
1.539370078740156
 20
0.5295275590551185
 30
0.0
 11
1.539370078740156
 21
0.5521653543307093
 31
0.0
  0
LINE
  5
21AB
330
1E
100
AcDbEntity
  8
3
100
AcDbLine
 10
1.539370078740156
 20
0.5521653543307093
 30
0.0
 11
1.539370078740156
 21
0.571850393700788
 31
0.0
  0
LINE
  5
21AC
330
1E
100
AcDbEntity
  8
3
100
AcDbLine
 10
1.539370078740156
 20
0.571850393700788
 30
0.0
 11
1.539370078740156
 21
0.5846456692913389
 31
0.0
  0
LINE
  5
21AD
330
1E
100
AcDbEntity
  8
3
100
AcDbLine
 10
1.539370078740156
 20
0.5846456692913389
 30
0.0
 11
1.539370078740156
 21
0.5895669291338584
 31
0.0
  0
LINE
  5
21AE
330
1E
100
AcDbEntity
  8
3
100
AcDbLine
 10
1.539370078740156
 20
-0.2372047244094482
 30
0.0
 11
1.539370078740156
 21
-0.2332677165354324
 31
0.0
  0
LINE
  5
21AF
330
1E
100
AcDbEntity
  8
3
100
AcDbLine
 10
1.539370078740156
 20
-0.2332677165354324
 30
0.0
 11
1.539370078740156
 21
-0.2194881889763778
 31
0.0
  0
LINE
  5
21B0
330
1E
100
AcDbEntity
  8
3
100
AcDbLine
 10
1.539370078740156
 20
-0.2194881889763778
 30
0.0
 11
1.539370078740156
 21
-0.2007874015748028
 31
0.0
  0
LINE
  5
21B1
330
1E
100
AcDbEntity
  8
3
100
AcDbLine
 10
1.539370078740156
 20
-0.2007874015748028
 30
0.0
 11
1.539370078740156
 21
-0.1771653543307083
 31
0.0
  0
LINE
  5
21B2
330
1E
100
AcDbEntity
  8
3
100
AcDbLine
 10
1.583661417322834
 20
-0.1584645669291333
 30
0.0
 11
1.539370078740156
 21
-0.1594488188976371
 31
0.0
  0
LINE
  5
21B3
330
1E
100
AcDbEntity
  8
3
100
AcDbLine
 10
1.539370078740156
 20
-0.1594488188976371
 30
0.0
 11
1.539370078740156
 21
-0.1771653543307083
 31
0.0
  0
LINE
  5
21B4
330
1E
100
AcDbEntity
  8
3
100
AcDbLine
 10
1.539370078740156
 20
-0.1771653543307083
 30
0.0
 11
1.659448818897637
 21
-0.1751968503937
 31
0.0
  0
LINE
  5
21B5
330
1E
100
AcDbEntity
  8
3
100
AcDbLine
 10
1.539370078740156
 20
-0.1486220472440944
 30
0.0
 11
1.539370078740156
 21
-0.1456692913385824
 31
0.0
  0
LINE
  5
21B6
330
1E
100
AcDbEntity
  8
3
100
AcDbLine
 10
1.539370078740156
 20
-0.1456692913385824
 30
0.0
 11
1.539370078740156
 21
-0.1387795275590546
 31
0.0
  0
LINE
  5
21B7
330
1E
100
AcDbEntity
  8
3
100
AcDbLine
 10
1.575787401574803
 20
-0.0413385826771648
 30
0.0
 11
1.539370078740156
 21
-0.0413385826771648
 31
0.0
  0
LINE
  5
21B8
330
1E
100
AcDbEntity
  8
3
100
AcDbLine
 10
1.539370078740156
 20
-0.0413385826771648
 30
0.0
 11
1.539370078740156
 21
-0.1387795275590546
 31
0.0
  0
LINE
  5
21B9
330
1E
100
AcDbEntity
  8
3
100
AcDbLine
 10
1.539370078740156
 20
-0.1387795275590546
 30
0.0
 11
1.575787401574803
 21
-0.1387795275590546
 31
0.0
  0
LINE
  5
21BA
330
1E
100
AcDbEntity
  8
3
100
AcDbLine
 10
1.539370078740156
 20
-0.0413385826771648
 30
0.0
 11
1.539370078740156
 21
-0.0344488188976371
 31
0.0
  0
LINE
  5
21BB
330
1E
100
AcDbEntity
  8
3
100
AcDbLine
 10
1.539370078740156
 20
-0.0344488188976371
 30
0.0
 11
1.539370078740156
 21
-0.0314960629921259
 31
0.0
  0
LINE
  5
21BC
330
1E
100
AcDbEntity
  8
3
100
AcDbLine
 10
1.539370078740156
 20
-0.0314960629921259
 30
0.0
 11
1.539370078740156
 21
-0.0285433070866139
 31
0.0
  0
LINE
  5
21BD
330
1E
100
AcDbEntity
  8
3
100
AcDbLine
 10
1.539370078740156
 20
-0.0285433070866139
 30
0.0
 11
1.539370078740156
 21
-0.0206692913385824
 31
0.0
  0
LINE
  5
21BE
330
1E
100
AcDbEntity
  8
3
100
AcDbLine
 10
1.539370078740156
 20
-0.0019685039370074
 30
0.0
 11
1.539370078740156
 21
0.0137795275590556
 31
0.0
  0
LINE
  5
21BF
330
1E
100
AcDbEntity
  8
3
100
AcDbLine
 10
1.539370078740156
 20
0.0137795275590556
 30
0.0
 11
1.539370078740156
 21
0.0246062992125991
 31
0.0
  0
LINE
  5
21C0
330
1E
100
AcDbEntity
  8
3
100
AcDbLine
 10
1.539370078740156
 20
0.0246062992125991
 30
0.0
 11
1.539370078740156
 21
0.0285433070866148
 31
0.0
  0
LINE
  5
21C1
330
1E
100
AcDbEntity
  8
3
100
AcDbLine
 10
1.539370078740156
 20
0.0285433070866148
 30
0.0
 11
1.539370078740156
 21
0.0324803149606305
 31
0.0
  0
LINE
  5
21C2
330
1E
100
AcDbEntity
  8
3
100
AcDbLine
 10
1.539370078740156
 20
0.0324803149606305
 30
0.0
 11
1.539370078740156
 21
0.0433070866141741
 31
0.0
  0
LINE
  5
21C3
330
1E
100
AcDbEntity
  8
3
100
AcDbLine
 10
1.539370078740156
 20
0.0433070866141741
 30
0.0
 11
1.539370078740156
 21
0.0580708661417324
 31
0.0
  0
LINE
  5
21C4
330
1E
100
AcDbEntity
  8
3
100
AcDbLine
 10
1.539370078740156
 20
0.293307086614174
 30
0.0
 11
1.539370078740156
 21
0.3080708661417324
 31
0.0
  0
LINE
  5
21C5
330
1E
100
AcDbEntity
  8
3
100
AcDbLine
 10
1.539370078740156
 20
0.3080708661417324
 30
0.0
 11
1.539370078740156
 21
0.3198818897637796
 31
0.0
  0
LINE
  5
21C6
330
1E
100
AcDbEntity
  8
3
100
AcDbLine
 10
1.539370078740156
 20
0.3198818897637796
 30
0.0
 11
1.539370078740156
 21
0.3238188976377954
 31
0.0
  0
LINE
  5
21C7
330
1E
100
AcDbEntity
  8
3
100
AcDbLine
 10
1.539370078740156
 20
0.3238188976377954
 30
0.0
 11
1.539370078740156
 21
0.3277559055118111
 31
0.0
  0
LINE
  5
21C8
330
1E
100
AcDbEntity
  8
3
100
AcDbLine
 10
1.539370078740156
 20
0.3277559055118111
 30
0.0
 11
1.539370078740156
 21
0.3385826771653546
 31
0.0
  0
LINE
  5
21C9
330
1E
100
AcDbEntity
  8
3
100
AcDbLine
 10
1.539370078740156
 20
0.3385826771653546
 30
0.0
 11
1.539370078740156
 21
0.3533464566929139
 31
0.0
  0
LINE
  5
21CA
330
1E
100
AcDbEntity
  8
3
100
AcDbLine
 10
1.539370078740156
 20
0.3730314960629926
 30
0.0
 11
1.539370078740156
 21
0.3799212598425203
 31
0.0
  0
LINE
  5
21CB
330
1E
100
AcDbEntity
  8
3
100
AcDbLine
 10
1.539370078740156
 20
0.3799212598425203
 30
0.0
 11
1.539370078740156
 21
0.3828740157480315
 31
0.0
  0
LINE
  5
21CC
330
1E
100
AcDbEntity
  8
3
100
AcDbLine
 10
1.539370078740156
 20
0.3828740157480315
 30
0.0
 11
1.539370078740156
 21
0.3858267716535435
 31
0.0
  0
LINE
  5
21CD
330
1E
100
AcDbEntity
  8
3
100
AcDbLine
 10
1.539370078740156
 20
0.3858267716535435
 30
0.0
 11
1.539370078740156
 21
0.3927165354330713
 31
0.0
  0
LINE
  5
21CE
330
1E
100
AcDbEntity
  8
3
100
AcDbLine
 10
1.659448818897637
 20
-0.2519685039370074
 30
0.0
 11
1.659448818897637
 21
-0.265748031496063
 31
0.0
  0
LINE
  5
21CF
330
1E
100
AcDbEntity
  8
3
100
AcDbLine
 10
1.659448818897637
 20
-0.265748031496063
 30
0.0
 11
1.659448818897637
 21
-0.2716535433070861
 31
0.0
  0
LINE
  5
21D0
330
1E
100
AcDbEntity
  8
3
100
AcDbLine
 10
1.659448818897637
 20
-0.1751968503937
 30
0.0
 11
1.659448818897637
 21
-0.1988188976377945
 31
0.0
  0
LINE
  5
21D1
330
1E
100
AcDbEntity
  8
3
100
AcDbLine
 10
1.659448818897637
 20
-0.1988188976377945
 30
0.0
 11
1.659448818897637
 21
-0.2175196850393695
 31
0.0
  0
LINE
  5
21D2
330
1E
100
AcDbEntity
  8
3
100
AcDbLine
 10
1.659448818897637
 20
-0.2175196850393695
 30
0.0
 11
1.659448818897637
 21
-0.231299212598425
 31
0.0
  0
LINE
  5
21D3
330
1E
100
AcDbEntity
  8
3
100
AcDbLine
 10
1.659448818897637
 20
-0.231299212598425
 30
0.0
 11
1.659448818897637
 21
-0.2352362204724407
 31
0.0
  0
LINE
  5
21D4
330
1E
100
AcDbEntity
  8
3
100
AcDbLine
 10
1.659448818897637
 20
0.3553149606299213
 30
0.0
 11
1.659448818897637
 21
0.3405511811023629
 31
0.0
  0
LINE
  5
21D5
330
1E
100
AcDbEntity
  8
3
100
AcDbLine
 10
1.659448818897637
 20
0.3405511811023629
 30
0.0
 11
1.659448818897637
 21
0.3297244094488194
 31
0.0
  0
LINE
  5
21D6
330
1E
100
AcDbEntity
  8
3
100
AcDbLine
 10
1.659448818897637
 20
0.3297244094488194
 30
0.0
 11
1.659448818897637
 21
0.3257874015748037
 31
0.0
  0
LINE
  5
21D7
330
1E
100
AcDbEntity
  8
3
100
AcDbLine
 10
1.659448818897637
 20
0.3257874015748037
 30
0.0
 11
1.659448818897637
 21
0.3218503937007879
 31
0.0
  0
LINE
  5
21D8
330
1E
100
AcDbEntity
  8
3
100
AcDbLine
 10
1.659448818897637
 20
0.3218503937007879
 30
0.0
 11
1.659448818897637
 21
0.3110236220472444
 31
0.0
  0
LINE
  5
21D9
330
1E
100
AcDbEntity
  8
3
100
AcDbLine
 10
1.659448818897637
 20
0.3110236220472444
 30
0.0
 11
1.659448818897637
 21
0.2952755905511815
 31
0.0
  0
LINE
  5
21DA
330
1E
100
AcDbEntity
  8
3
100
AcDbLine
 10
1.659448818897637
 20
0.2952755905511815
 30
0.0
 11
1.659448818897637
 21
0.056102362204725
 31
0.0
  0
LINE
  5
21DB
330
1E
100
AcDbEntity
  8
3
100
AcDbLine
 10
1.659448818897637
 20
0.056102362204725
 30
0.0
 11
1.659448818897637
 21
0.0413385826771657
 31
0.0
  0
LINE
  5
21DC
330
1E
100
AcDbEntity
  8
3
100
AcDbLine
 10
1.659448818897637
 20
0.0413385826771657
 30
0.0
 11
1.659448818897637
 21
0.0305118110236222
 31
0.0
  0
LINE
  5
21DD
330
1E
100
AcDbEntity
  8
3
100
AcDbLine
 10
1.659448818897637
 20
0.0305118110236222
 30
0.0
 11
1.659448818897637
 21
0.0265748031496065
 31
0.0
  0
LINE
  5
21DE
330
1E
100
AcDbEntity
  8
3
100
AcDbLine
 10
1.659448818897637
 20
0.0265748031496065
 30
0.0
 11
1.659448818897637
 21
0.0226377952755907
 31
0.0
  0
LINE
  5
21DF
330
1E
100
AcDbEntity
  8
3
100
AcDbLine
 10
1.659448818897637
 20
0.0226377952755907
 30
0.0
 11
1.659448818897637
 21
0.0118110236220472
 31
0.0
  0
LINE
  5
21E0
330
1E
100
AcDbEntity
  8
3
100
AcDbLine
 10
1.659448818897637
 20
0.5875984251968509
 30
0.0
 11
1.659448818897637
 21
0.5826771653543315
 31
0.0
  0
LINE
  5
21E1
330
1E
100
AcDbEntity
  8
3
100
AcDbLine
 10
1.659448818897637
 20
0.5826771653543315
 30
0.0
 11
1.659448818897637
 21
0.5698818897637797
 31
0.0
  0
LINE
  5
21E2
330
1E
100
AcDbEntity
  8
3
100
AcDbLine
 10
1.659448818897637
 20
0.5698818897637797
 30
0.0
 11
1.659448818897637
 21
0.550196850393701
 31
0.0
  0
LINE
  5
21E3
330
1E
100
AcDbEntity
  8
3
100
AcDbLine
 10
1.659448818897637
 20
0.550196850393701
 30
0.0
 11
1.659448818897637
 21
0.5275590551181111
 31
0.0
  0
LINE
  5
21E4
330
1E
100
AcDbEntity
  8
3
100
AcDbLine
 10
1.659448818897637
 20
0.6240157480314963
 30
0.0
 11
1.659448818897637
 21
0.6181102362204732
 31
0.0
  0
LINE
  5
21E5
330
1E
100
AcDbEntity
  8
3
100
AcDbLine
 10
1.659448818897637
 20
0.6181102362204732
 30
0.0
 11
1.659448818897637
 21
0.6043307086614176
 31
0.0
  0
LINE
  5
21E6
330
1E
100
AcDbEntity
  8
3
100
AcDbLine
 10
1.575787401574803
 20
0.393700787401575
 30
0.0
 11
1.575787401574803
 21
0.3868110236220472
 31
0.0
  0
LINE
  5
21E7
330
1E
100
AcDbEntity
  8
3
100
AcDbLine
 10
1.575787401574803
 20
0.3868110236220472
 30
0.0
 11
1.575787401574803
 21
0.3838582677165361
 31
0.0
  0
LINE
  5
21E8
330
1E
100
AcDbEntity
  8
3
100
AcDbLine
 10
1.575787401574803
 20
0.5009842519685046
 30
0.0
 11
1.575787401574803
 21
0.5
 31
0.0
  0
LINE
  5
21E9
330
1E
100
AcDbEntity
  8
3
100
AcDbLine
 10
1.575787401574803
 20
0.5
 30
0.0
 11
1.575787401574803
 21
0.4970472440944889
 31
0.0
  0
LINE
  5
21EA
330
1E
100
AcDbEntity
  8
3
100
AcDbLine
 10
1.575787401574803
 20
0.4970472440944889
 30
0.0
 11
1.575787401574803
 21
0.4901574803149611
 31
0.0
  0
LINE
  5
21EB
330
1E
100
AcDbEntity
  8
3
100
AcDbLine
 10
1.583661417322834
 20
0.3740157480314963
 30
0.0
 11
1.581692913385826
 21
0.375
 31
0.0
  0
LINE
  5
21EC
330
1E
100
AcDbEntity
  8
3
100
AcDbLine
 10
1.581692913385826
 20
0.375
 30
0.0
 11
1.578740157480314
 21
0.3789370078740157
 31
0.0
  0
LINE
  5
21ED
330
1E
100
AcDbEntity
  8
3
100
AcDbLine
 10
1.578740157480314
 20
0.3789370078740157
 30
0.0
 11
1.576771653543306
 21
0.380905511811024
 31
0.0
  0
LINE
  5
21EE
330
1E
100
AcDbEntity
  8
3
100
AcDbLine
 10
1.576771653543306
 20
0.380905511811024
 30
0.0
 11
1.575787401574803
 21
0.3828740157480315
 31
0.0
  0
LINE
  5
21EF
330
1E
100
AcDbEntity
  8
3
100
AcDbLine
 10
1.575787401574803
 20
0.5009842519685046
 30
0.0
 11
1.576771653543306
 21
0.5029527559055121
 31
0.0
  0
LINE
  5
21F0
330
1E
100
AcDbEntity
  8
3
100
AcDbLine
 10
1.576771653543306
 20
0.5029527559055121
 30
0.0
 11
1.578740157480314
 21
0.5049212598425204
 31
0.0
  0
LINE
  5
21F1
330
1E
100
AcDbEntity
  8
3
100
AcDbLine
 10
1.578740157480314
 20
0.5049212598425204
 30
0.0
 11
1.581692913385826
 21
0.5088582677165361
 31
0.0
  0
LINE
  5
21F2
330
1E
100
AcDbEntity
  8
3
100
AcDbLine
 10
1.581692913385826
 20
0.5088582677165361
 30
0.0
 11
1.583661417322834
 21
0.5098425196850398
 31
0.0
  0
LINE
  5
21F3
330
1E
100
AcDbEntity
  8
3
100
AcDbLine
 10
1.583661417322834
 20
-0.1584645669291333
 30
0.0
 11
1.581692913385826
 21
-0.1574803149606296
 31
0.0
  0
LINE
  5
21F4
330
1E
100
AcDbEntity
  8
3
100
AcDbLine
 10
1.581692913385826
 20
-0.1574803149606296
 30
0.0
 11
1.578740157480314
 21
-0.1535433070866139
 31
0.0
  0
LINE
  5
21F5
330
1E
100
AcDbEntity
  8
3
100
AcDbLine
 10
1.578740157480314
 20
-0.1535433070866139
 30
0.0
 11
1.576771653543306
 21
-0.1505905511811019
 31
0.0
  0
LINE
  5
21F6
330
1E
100
AcDbEntity
  8
3
100
AcDbLine
 10
1.576771653543306
 20
-0.1505905511811019
 30
0.0
 11
1.575787401574803
 21
-0.1496062992125982
 31
0.0
  0
LINE
  5
21F7
330
1E
100
AcDbEntity
  8
3
100
AcDbLine
 10
1.575787401574803
 20
-0.1496062992125982
 30
0.0
 11
1.575787401574803
 21
-0.1486220472440944
 31
0.0
  0
LINE
  5
21F8
330
1E
100
AcDbEntity
  8
3
100
AcDbLine
 10
1.575787401574803
 20
-0.0305118110236213
 30
0.0
 11
1.576771653543306
 21
-0.0295275590551176
 31
0.0
  0
LINE
  5
21F9
330
1E
100
AcDbEntity
  8
3
100
AcDbLine
 10
1.576771653543306
 20
-0.0295275590551176
 30
0.0
 11
1.578740157480314
 21
-0.0265748031496056
 31
0.0
  0
LINE
  5
21FA
330
1E
100
AcDbEntity
  8
3
100
AcDbLine
 10
1.578740157480314
 20
-0.0265748031496056
 30
0.0
 11
1.581692913385826
 21
-0.0226377952755899
 31
0.0
  0
LINE
  5
21FB
330
1E
100
AcDbEntity
  8
3
100
AcDbLine
 10
1.581692913385826
 20
-0.0226377952755899
 30
0.0
 11
1.583661417322834
 21
-0.0216535433070861
 31
0.0
  0
LINE
  5
21FC
330
1E
100
AcDbEntity
  8
3
100
AcDbLine
 10
1.575787401574803
 20
-0.1387795275590546
 30
0.0
 11
1.575787401574803
 21
-0.1456692913385824
 31
0.0
  0
LINE
  5
21FD
330
1E
100
AcDbEntity
  8
3
100
AcDbLine
 10
1.575787401574803
 20
-0.1456692913385824
 30
0.0
 11
1.575787401574803
 21
-0.1486220472440944
 31
0.0
  0
LINE
  5
21FE
330
1E
100
AcDbEntity
  8
3
100
AcDbLine
 10
1.575787401574803
 20
-0.0314960629921259
 30
0.0
 11
1.575787401574803
 21
-0.0344488188976371
 31
0.0
  0
LINE
  5
21FF
330
1E
100
AcDbEntity
  8
3
100
AcDbLine
 10
1.575787401574803
 20
-0.0344488188976371
 30
0.0
 11
1.575787401574803
 21
-0.0413385826771648
 31
0.0
  0
LINE
  5
2200
330
1E
100
AcDbEntity
  8
3
100
AcDbLine
 10
1.224409448818897
 20
-0.2490157480314954
 30
0.0
 11
1.224409448818897
 21
-0.2529527559055111
 31
0.0
  0
LINE
  5
2201
330
1E
100
AcDbEntity
  8
3
100
AcDbLine
 10
1.224409448818897
 20
-0.2529527559055111
 30
0.0
 11
1.224409448818897
 21
-0.2559055118110232
 31
0.0
  0
LINE
  5
2202
330
1E
100
AcDbEntity
  8
3
100
AcDbLine
 10
1.224409448818897
 20
-0.2559055118110232
 30
0.0
 11
1.225393700787401
 21
-0.2578740157480315
 31
0.0
  0
LINE
  5
2203
330
1E
100
AcDbEntity
  8
3
100
AcDbLine
 10
1.225393700787401
 20
-0.2578740157480315
 30
0.0
 11
1.225393700787401
 21
-0.2598425196850389
 31
0.0
  0
LINE
  5
2204
330
1E
100
AcDbEntity
  8
3
100
AcDbLine
 10
1.225393700787401
 20
-0.2598425196850389
 30
0.0
 11
1.227362204724408
 21
-0.2627952755905509
 31
0.0
  0
LINE
  5
2205
330
1E
100
AcDbEntity
  8
3
100
AcDbLine
 10
1.227362204724408
 20
-0.2627952755905509
 30
0.0
 11
1.23031496062992
 21
-0.265748031496063
 31
0.0
  0
LINE
  5
2206
330
1E
100
AcDbEntity
  8
3
100
AcDbLine
 10
1.23031496062992
 20
-0.265748031496063
 30
0.0
 11
1.234251968503936
 21
-0.2677165354330704
 31
0.0
  0
LINE
  5
2207
330
1E
100
AcDbEntity
  8
3
100
AcDbLine
 10
1.234251968503936
 20
-0.2677165354330704
 30
0.0
 11
1.238188976377952
 21
-0.2687007874015745
 31
0.0
  0
LINE
  5
2208
330
1E
100
AcDbEntity
  8
3
100
AcDbLine
 10
1.238188976377952
 20
-0.2687007874015745
 30
0.0
 11
1.239173228346456
 21
-0.2687007874015745
 31
0.0
  0
LINE
  5
2209
330
1E
100
AcDbEntity
  8
3
100
AcDbLine
 10
1.239173228346456
 20
0.6200787401574806
 30
0.0
 11
1.238188976377952
 21
0.6200787401574806
 31
0.0
  0
LINE
  5
220A
330
1E
100
AcDbEntity
  8
3
100
AcDbLine
 10
1.238188976377952
 20
0.6200787401574806
 30
0.0
 11
1.234251968503936
 21
0.6190944881889769
 31
0.0
  0
LINE
  5
220B
330
1E
100
AcDbEntity
  8
3
100
AcDbLine
 10
1.234251968503936
 20
0.6190944881889769
 30
0.0
 11
1.23031496062992
 21
0.6171259842519686
 31
0.0
  0
LINE
  5
220C
330
1E
100
AcDbEntity
  8
3
100
AcDbLine
 10
1.23031496062992
 20
0.6171259842519686
 30
0.0
 11
1.227362204724408
 21
0.6151574803149611
 31
0.0
  0
LINE
  5
220D
330
1E
100
AcDbEntity
  8
3
100
AcDbLine
 10
1.227362204724408
 20
0.6151574803149611
 30
0.0
 11
1.225393700787401
 21
0.6112204724409454
 31
0.0
  0
LINE
  5
220E
330
1E
100
AcDbEntity
  8
3
100
AcDbLine
 10
1.225393700787401
 20
0.6112204724409454
 30
0.0
 11
1.225393700787401
 21
0.6102362204724417
 31
0.0
  0
LINE
  5
220F
330
1E
100
AcDbEntity
  8
3
100
AcDbLine
 10
1.225393700787401
 20
0.6102362204724417
 30
0.0
 11
1.224409448818897
 21
0.6082677165354334
 31
0.0
  0
LINE
  5
2210
330
1E
100
AcDbEntity
  8
3
100
AcDbLine
 10
1.224409448818897
 20
0.6082677165354334
 30
0.0
 11
1.224409448818897
 21
0.6053149606299213
 31
0.0
  0
LINE
  5
2211
330
1E
100
AcDbEntity
  8
3
100
AcDbLine
 10
1.224409448818897
 20
0.6053149606299213
 30
0.0
 11
1.224409448818897
 21
0.6003937007874019
 31
0.0
  0
LINE
  5
2212
330
1E
100
AcDbEntity
  8
3
100
AcDbLine
 10
1.386811023622046
 20
0.4812992125984259
 30
0.0
 11
1.383858267716535
 21
0.4773622047244102
 31
0.0
  0
LINE
  5
2213
330
1E
100
AcDbEntity
  8
3
100
AcDbLine
 10
1.383858267716535
 20
0.4773622047244102
 30
0.0
 11
1.382874015748031
 21
0.4724409448818899
 31
0.0
  0
LINE
  5
2214
330
1E
100
AcDbEntity
  8
3
100
AcDbLine
 10
1.382874015748031
 20
0.4724409448818899
 30
0.0
 11
1.381889763779527
 21
0.4685039370078741
 31
0.0
  0
LINE
  5
2215
330
1E
100
AcDbEntity
  8
3
100
AcDbLine
 10
1.381889763779527
 20
0.4685039370078741
 30
0.0
 11
1.381889763779527
 21
0.4635826771653547
 31
0.0
  0
LINE
  5
2216
330
1E
100
AcDbEntity
  8
3
100
AcDbLine
 10
1.401574803149606
 20
0.4881889763779528
 30
0.0
 11
1.400590551181102
 21
0.4881889763779528
 31
0.0
  0
LINE
  5
2217
330
1E
100
AcDbEntity
  8
3
100
AcDbLine
 10
1.400590551181102
 20
0.4881889763779528
 30
0.0
 11
1.394685039370078
 21
0.4872047244094491
 31
0.0
  0
LINE
  5
2218
330
1E
100
AcDbEntity
  8
3
100
AcDbLine
 10
1.394685039370078
 20
0.4872047244094491
 30
0.0
 11
1.386811023622046
 21
0.4812992125984259
 31
0.0
  0
LINE
  5
2219
330
1E
100
AcDbEntity
  8
3
100
AcDbLine
 10
1.381889763779527
 20
-0.1112204724409445
 30
0.0
 11
1.381889763779527
 21
-0.1161417322834639
 31
0.0
  0
LINE
  5
221A
330
1E
100
AcDbEntity
  8
3
100
AcDbLine
 10
1.381889763779527
 20
-0.1161417322834639
 30
0.0
 11
1.382874015748031
 21
-0.1200787401574797
 31
0.0
  0
LINE
  5
221B
330
1E
100
AcDbEntity
  8
3
100
AcDbLine
 10
1.382874015748031
 20
-0.1200787401574797
 30
0.0
 11
1.383858267716535
 21
-0.1240157480314954
 31
0.0
  0
LINE
  5
221C
330
1E
100
AcDbEntity
  8
3
100
AcDbLine
 10
1.383858267716535
 20
-0.1240157480314954
 30
0.0
 11
1.386811023622046
 21
-0.1289370078740157
 31
0.0
  0
LINE
  5
221D
330
1E
100
AcDbEntity
  8
3
100
AcDbLine
 10
1.386811023622046
 20
-0.1289370078740157
 30
0.0
 11
1.390748031496062
 21
-0.1318897637795269
 31
0.0
  0
LINE
  5
221E
330
1E
100
AcDbEntity
  8
3
100
AcDbLine
 10
1.390748031496062
 20
-0.1318897637795269
 30
0.0
 11
1.394685039370078
 21
-0.1348425196850389
 31
0.0
  0
LINE
  5
221F
330
1E
100
AcDbEntity
  8
3
100
AcDbLine
 10
1.394685039370078
 20
-0.1348425196850389
 30
0.0
 11
1.400590551181102
 21
-0.1358267716535426
 31
0.0
  0
LINE
  5
2220
330
1E
100
AcDbEntity
  8
3
100
AcDbLine
 10
1.400590551181102
 20
-0.1358267716535426
 30
0.0
 11
1.401574803149606
 21
-0.1358267716535426
 31
0.0
  0
LINE
  5
2227
330
1E
100
AcDbEntity
  8
3
100
AcDbLine
 10
-1.493110236220472
 20
1.861220472440945
 30
0.0
 11
-1.493110236220472
 21
1.865157480314961
 31
0.0
  0
LINE
  5
2228
330
1E
100
AcDbEntity
  8
3
100
AcDbLine
 10
-1.493110236220472
 20
1.865157480314961
 30
0.0
 11
-1.493110236220472
 21
1.875984251968504
 31
0.0
  0
LINE
  5
2229
330
1E
100
AcDbEntity
  8
3
100
AcDbLine
 10
-0.4330708661417324
 20
1.861220472440945
 30
0.0
 11
-0.4330708661417324
 21
1.865157480314961
 31
0.0
  0
LINE
  5
222A
330
1E
100
AcDbEntity
  8
3
100
AcDbLine
 10
-0.4330708661417324
 20
1.865157480314961
 30
0.0
 11
-0.4330708661417324
 21
1.875984251968504
 31
0.0
  0
LINE
  5
222B
330
1E
100
AcDbEntity
  8
3
100
AcDbLine
 10
-0.4330708661417324
 20
1.875984251968504
 30
0.0
 11
-0.4192913385826773
 21
1.875984251968504
 31
0.0
  0
LINE
  5
222C
330
1E
100
AcDbEntity
  8
3
100
AcDbLine
 10
-0.4192913385826773
 20
1.875984251968504
 30
0.0
 11
-0.4133858267716537
 21
1.875984251968504
 31
0.0
  0
LINE
  5
222D
330
1E
100
AcDbEntity
  8
3
100
AcDbLine
 10
-1.512795275590551
 20
1.875984251968504
 30
0.0
 11
-1.506889763779527
 21
1.875984251968504
 31
0.0
  0
LINE
  5
222E
330
1E
100
AcDbEntity
  8
3
100
AcDbLine
 10
-1.506889763779527
 20
1.875984251968504
 30
0.0
 11
-1.493110236220472
 21
1.875984251968504
 31
0.0
  0
LINE
  5
222F
330
1E
100
AcDbEntity
  8
3
100
AcDbLine
 10
-1.590551181102362
 20
2.038385826771653
 30
0.0
 11
-1.58759842519685
 21
2.038385826771653
 31
0.0
  0
LINE
  5
2230
330
1E
100
AcDbEntity
  8
3
100
AcDbLine
 10
-1.58759842519685
 20
2.038385826771653
 30
0.0
 11
-1.577755905511811
 21
2.038385826771653
 31
0.0
  0
LINE
  5
2231
330
1E
100
AcDbEntity
  8
3
100
AcDbLine
 10
-1.577755905511811
 20
2.038385826771653
 30
0.0
 11
-1.565944881889763
 21
2.038385826771653
 31
0.0
  0
LINE
  5
2232
330
1E
100
AcDbEntity
  8
3
100
AcDbLine
 10
-1.565944881889763
 20
2.038385826771653
 30
0.0
 11
-1.565944881889763
 21
2.024606299212599
 31
0.0
  0
LINE
  5
2233
330
1E
100
AcDbEntity
  8
3
100
AcDbLine
 10
-0.3602362204724412
 20
2.018700787401574
 30
0.0
 11
-0.3602362204724412
 21
2.024606299212599
 31
0.0
  0
LINE
  5
2234
330
1E
100
AcDbEntity
  8
3
100
AcDbLine
 10
-0.3602362204724412
 20
2.024606299212599
 30
0.0
 11
-0.3602362204724412
 21
2.038385826771653
 31
0.0
  0
LINE
  5
2235
330
1E
100
AcDbEntity
  8
3
100
AcDbLine
 10
-0.3602362204724412
 20
2.038385826771653
 30
0.0
 11
-0.3474409448818898
 21
2.038385826771653
 31
0.0
  0
LINE
  5
2236
330
1E
100
AcDbEntity
  8
3
100
AcDbLine
 10
-0.3474409448818898
 20
2.038385826771653
 30
0.0
 11
-0.3385826771653546
 21
2.038385826771653
 31
0.0
  0
LINE
  5
2237
330
1E
100
AcDbEntity
  8
3
100
AcDbLine
 10
-0.3385826771653546
 20
2.038385826771653
 30
0.0
 11
-0.3356299212598426
 21
2.038385826771653
 31
0.0
  0
LINE
  5
2238
330
1E
100
AcDbEntity
  8
3
100
AcDbLine
 10
-0.3553149606299213
 20
2.018700787401574
 30
0.0
 11
-0.3602362204724412
 21
2.018700787401574
 31
0.0
  0
LINE
  5
2239
330
1E
100
AcDbEntity
  8
3
100
AcDbLine
 10
-0.3602362204724412
 20
2.018700787401574
 30
0.0
 11
-0.4104330708661422
 21
2.018700787401574
 31
0.0
  0
LINE
  5
223A
330
1E
100
AcDbEntity
  8
3
100
AcDbLine
 10
-0.4104330708661422
 20
2.038385826771653
 30
0.0
 11
-0.3602362204724412
 21
2.038385826771653
 31
0.0
  0
LINE
  5
223B
330
1E
100
AcDbEntity
  8
3
100
AcDbLine
 10
-0.3602362204724412
 20
2.038385826771653
 30
0.0
 11
-0.3582677165354333
 21
2.176181102362205
 31
0.0
  0
LINE
  5
223C
330
1E
100
AcDbEntity
  8
3
100
AcDbLine
 10
-1.567913385826771
 20
2.176181102362205
 30
0.0
 11
-1.565944881889763
 21
2.038385826771653
 31
0.0
  0
LINE
  5
223D
330
1E
100
AcDbEntity
  8
3
100
AcDbLine
 10
-1.565944881889763
 20
2.038385826771653
 30
0.0
 11
-1.515748031496063
 21
2.038385826771653
 31
0.0
  0
LINE
  5
223E
330
1E
100
AcDbEntity
  8
3
100
AcDbLine
 10
-1.225393700787401
 20
2.111220472440945
 30
0.0
 11
-1.248031496062992
 21
2.116141732283464
 31
0.0
  0
LINE
  5
223F
330
1E
100
AcDbEntity
  8
3
100
AcDbLine
 10
-1.248031496062992
 20
2.116141732283464
 30
0.0
 11
-1.266732283464567
 21
2.128937007874015
 31
0.0
  0
LINE
  5
2240
330
1E
100
AcDbEntity
  8
3
100
AcDbLine
 10
-1.266732283464567
 20
2.128937007874015
 30
0.0
 11
-1.280511811023622
 21
2.14763779527559
 31
0.0
  0
LINE
  5
2241
330
1E
100
AcDbEntity
  8
3
100
AcDbLine
 10
-1.280511811023622
 20
2.14763779527559
 30
0.0
 11
-1.285433070866141
 21
2.170275590551181
 31
0.0
  0
LINE
  5
2242
330
1E
100
AcDbEntity
  8
3
100
AcDbLine
 10
-0.640748031496063
 20
2.176181102362205
 30
0.0
 11
-0.640748031496063
 21
2.170275590551181
 31
0.0
  0
LINE
  5
2243
330
1E
100
AcDbEntity
  8
3
100
AcDbLine
 10
-0.640748031496063
 20
2.170275590551181
 30
0.0
 11
-0.6456692913385829
 21
2.14763779527559
 31
0.0
  0
LINE
  5
2244
330
1E
100
AcDbEntity
  8
3
100
AcDbLine
 10
-0.6456692913385829
 20
2.14763779527559
 30
0.0
 11
-0.6584645669291343
 21
2.128937007874015
 31
0.0
  0
LINE
  5
2245
330
1E
100
AcDbEntity
  8
3
100
AcDbLine
 10
-0.6584645669291343
 20
2.128937007874015
 30
0.0
 11
-0.678149606299213
 21
2.116141732283464
 31
0.0
  0
LINE
  5
2246
330
1E
100
AcDbEntity
  8
3
100
AcDbLine
 10
-0.678149606299213
 20
2.116141732283464
 30
0.0
 11
-0.7007874015748033
 21
2.111220472440945
 31
0.0
  0
LINE
  5
2247
330
1E
100
AcDbEntity
  8
3
100
AcDbLine
 10
-1.498031496062992
 20
2.176181102362205
 30
0.0
 11
-1.493110236220472
 21
1.875984251968504
 31
0.0
  0
LINE
  5
2248
330
1E
100
AcDbEntity
  8
3
100
AcDbLine
 10
-1.493110236220472
 20
1.875984251968504
 30
0.0
 11
-0.4330708661417324
 21
1.875984251968504
 31
0.0
  0
LINE
  5
2249
330
1E
100
AcDbEntity
  8
3
100
AcDbLine
 10
-0.4330708661417324
 20
1.875984251968504
 30
0.0
 11
-0.428149606299213
 21
2.176181102362205
 31
0.0
  0
LINE
  5
224A
330
1E
100
AcDbEntity
  8
3
100
AcDbLine
 10
-0.428149606299213
 20
1.861220472440945
 30
0.0
 11
-0.4330708661417324
 21
1.861220472440945
 31
0.0
  0
LINE
  5
224B
330
1E
100
AcDbEntity
  8
3
100
AcDbLine
 10
-0.4330708661417324
 20
1.861220472440945
 30
0.0
 11
-1.493110236220472
 21
1.861220472440945
 31
0.0
  0
LINE
  5
224C
330
1E
100
AcDbEntity
  8
3
100
AcDbLine
 10
-0.8681102362204725
 20
2.520669291338583
 30
0.0
 11
-0.8671259842519685
 21
2.515748031496062
 31
0.0
  0
LINE
  5
224D
330
1E
100
AcDbEntity
  8
3
100
AcDbLine
 10
-0.8671259842519685
 20
2.515748031496062
 30
0.0
 11
-0.8671259842519685
 21
2.500984251968504
 31
0.0
  0
LINE
  5
224E
330
1E
100
AcDbEntity
  8
3
100
AcDbLine
 10
-0.8671259842519685
 20
2.500984251968504
 30
0.0
 11
-0.8651574803149607
 21
2.481299212598425
 31
0.0
  0
LINE
  5
224F
330
1E
100
AcDbEntity
  8
3
100
AcDbLine
 10
-1.06003937007874
 20
2.481299212598425
 30
0.0
 11
-1.059055118110236
 21
2.500984251968504
 31
0.0
  0
LINE
  5
2250
330
1E
100
AcDbEntity
  8
3
100
AcDbLine
 10
-1.059055118110236
 20
2.500984251968504
 30
0.0
 11
-1.059055118110236
 21
2.515748031496062
 31
0.0
  0
LINE
  5
2251
330
1E
100
AcDbEntity
  8
3
100
AcDbLine
 10
-1.059055118110236
 20
2.515748031496062
 30
0.0
 11
-1.058070866141732
 21
2.520669291338583
 31
0.0
  0
LINE
  5
2252
330
1E
100
AcDbEntity
  8
3
100
AcDbLine
 10
-1.498031496062992
 20
2.176181102362205
 30
0.0
 11
-1.511811023622047
 21
2.176181102362205
 31
0.0
  0
LINE
  5
2253
330
1E
100
AcDbEntity
  8
3
100
AcDbLine
 10
-1.511811023622047
 20
2.176181102362205
 30
0.0
 11
-1.517716535433071
 21
2.176181102362205
 31
0.0
  0
LINE
  5
2254
330
1E
100
AcDbEntity
  8
3
100
AcDbLine
 10
-1.496062992125984
 20
2.296259842519685
 30
0.0
 11
-1.498031496062992
 21
2.176181102362205
 31
0.0
  0
LINE
  5
2255
330
1E
100
AcDbEntity
  8
3
100
AcDbLine
 10
-1.498031496062992
 20
2.176181102362205
 30
0.0
 11
-1.285433070866141
 21
2.176181102362205
 31
0.0
  0
LINE
  5
2256
330
1E
100
AcDbEntity
  8
3
100
AcDbLine
 10
-1.817913385826771
 20
2.21259842519685
 30
0.0
 11
-1.818897637795275
 21
2.176181102362205
 31
0.0
  0
LINE
  5
2257
330
1E
100
AcDbEntity
  8
3
100
AcDbLine
 10
-1.818897637795275
 20
2.176181102362205
 30
0.0
 11
-1.799212598425197
 21
2.176181102362205
 31
0.0
  0
LINE
  5
2258
330
1E
100
AcDbEntity
  8
3
100
AcDbLine
 10
-1.818897637795275
 20
2.176181102362205
 30
0.0
 11
-1.825787401574803
 21
2.176181102362205
 31
0.0
  0
LINE
  5
2259
330
1E
100
AcDbEntity
  8
3
100
AcDbLine
 10
-1.825787401574803
 20
2.176181102362205
 30
0.0
 11
-1.828740157480314
 21
2.176181102362205
 31
0.0
  0
LINE
  5
225A
330
1E
100
AcDbEntity
  8
3
100
AcDbLine
 10
-1.727362204724409
 20
2.296259842519685
 30
0.0
 11
-1.729330708661417
 21
2.176181102362205
 31
0.0
  0
LINE
  5
225B
330
1E
100
AcDbEntity
  8
3
100
AcDbLine
 10
-1.729330708661417
 20
2.176181102362205
 30
0.0
 11
-1.517716535433071
 21
2.176181102362205
 31
0.0
  0
LINE
  5
225C
330
1E
100
AcDbEntity
  8
3
100
AcDbLine
 10
-1.729330708661417
 20
2.176181102362205
 30
0.0
 11
-1.752952755905512
 21
2.176181102362205
 31
0.0
  0
LINE
  5
225D
330
1E
100
AcDbEntity
  8
3
100
AcDbLine
 10
-1.752952755905512
 20
2.176181102362205
 30
0.0
 11
-1.771653543307086
 21
2.176181102362205
 31
0.0
  0
LINE
  5
225E
330
1E
100
AcDbEntity
  8
3
100
AcDbLine
 10
-1.771653543307086
 20
2.176181102362205
 30
0.0
 11
-1.785433070866141
 21
2.176181102362205
 31
0.0
  0
LINE
  5
225F
330
1E
100
AcDbEntity
  8
3
100
AcDbLine
 10
-1.785433070866141
 20
2.176181102362205
 30
0.0
 11
-1.789370078740157
 21
2.176181102362205
 31
0.0
  0
LINE
  5
2260
330
1E
100
AcDbEntity
  8
3
100
AcDbLine
 10
-1.789370078740157
 20
2.176181102362205
 30
0.0
 11
-1.792322834645669
 21
2.176181102362205
 31
0.0
  0
LINE
  5
2261
330
1E
100
AcDbEntity
  8
3
100
AcDbLine
 10
-1.792322834645669
 20
2.176181102362205
 30
0.0
 11
-1.799212598425197
 21
2.176181102362205
 31
0.0
  0
LINE
  5
2262
330
1E
100
AcDbEntity
  8
3
100
AcDbLine
 10
-1.787401574803149
 20
2.296259842519685
 30
0.0
 11
-1.78248031496063
 21
2.296259842519685
 31
0.0
  0
LINE
  5
2263
330
1E
100
AcDbEntity
  8
3
100
AcDbLine
 10
-1.78248031496063
 20
2.296259842519685
 30
0.0
 11
-1.769685039370078
 21
2.296259842519685
 31
0.0
  0
LINE
  5
2264
330
1E
100
AcDbEntity
  8
3
100
AcDbLine
 10
-1.769685039370078
 20
2.296259842519685
 30
0.0
 11
-1.75
 21
2.296259842519685
 31
0.0
  0
LINE
  5
2265
330
1E
100
AcDbEntity
  8
3
100
AcDbLine
 10
-1.75
 20
2.296259842519685
 30
0.0
 11
-1.727362204724409
 21
2.296259842519685
 31
0.0
  0
LINE
  5
2266
330
1E
100
AcDbEntity
  8
3
100
AcDbLine
 10
-1.515748031496063
 20
2.296259842519685
 30
0.0
 11
-1.509842519685039
 21
2.296259842519685
 31
0.0
  0
LINE
  5
2267
330
1E
100
AcDbEntity
  8
3
100
AcDbLine
 10
-1.509842519685039
 20
2.296259842519685
 30
0.0
 11
-1.496062992125984
 21
2.296259842519685
 31
0.0
  0
LINE
  5
2268
330
1E
100
AcDbEntity
  8
3
100
AcDbLine
 10
-1.827755905511811
 20
2.21259842519685
 30
0.0
 11
-1.824803149606299
 21
2.21259842519685
 31
0.0
  0
LINE
  5
2269
330
1E
100
AcDbEntity
  8
3
100
AcDbLine
 10
-1.824803149606299
 20
2.21259842519685
 30
0.0
 11
-1.817913385826771
 21
2.21259842519685
 31
0.0
  0
LINE
  5
226A
330
1E
100
AcDbEntity
  8
3
100
AcDbLine
 10
-1.790354330708661
 20
2.215551181102362
 30
0.0
 11
-1.792322834645669
 21
2.213582677165354
 31
0.0
  0
LINE
  5
226B
330
1E
100
AcDbEntity
  8
3
100
AcDbLine
 10
-1.792322834645669
 20
2.213582677165354
 30
0.0
 11
-1.794291338582677
 21
2.21259842519685
 31
0.0
  0
LINE
  5
226C
330
1E
100
AcDbEntity
  8
3
100
AcDbLine
 10
-1.794291338582677
 20
2.21259842519685
 30
0.0
 11
-1.797244094488189
 21
2.21259842519685
 31
0.0
  0
LINE
  5
226D
330
1E
100
AcDbEntity
  8
3
100
AcDbLine
 10
-1.788385826771653
 20
2.220472440944882
 30
0.0
 11
-1.788385826771653
 21
2.219488188976378
 31
0.0
  0
LINE
  5
226E
330
1E
100
AcDbEntity
  8
3
100
AcDbLine
 10
-1.788385826771653
 20
2.219488188976378
 30
0.0
 11
-1.790354330708661
 21
2.215551181102362
 31
0.0
  0
LINE
  5
226F
330
1E
100
AcDbEntity
  8
3
100
AcDbLine
 10
-0.4104330708661422
 20
2.296259842519685
 30
0.0
 11
-0.4084645669291343
 21
2.176181102362205
 31
0.0
  0
LINE
  5
2270
330
1E
100
AcDbEntity
  8
3
100
AcDbLine
 10
-0.4084645669291343
 20
2.176181102362205
 30
0.0
 11
-0.4133858267716537
 21
2.176181102362205
 31
0.0
  0
LINE
  5
2271
330
1E
100
AcDbEntity
  8
3
100
AcDbLine
 10
-0.4133858267716537
 20
2.176181102362205
 30
0.0
 11
-0.428149606299213
 21
2.176181102362205
 31
0.0
  0
LINE
  5
2272
330
1E
100
AcDbEntity
  8
3
100
AcDbLine
 10
-0.640748031496063
 20
2.176181102362205
 30
0.0
 11
-0.428149606299213
 21
2.176181102362205
 31
0.0
  0
LINE
  5
2273
330
1E
100
AcDbEntity
  8
3
100
AcDbLine
 10
-0.428149606299213
 20
2.176181102362205
 30
0.0
 11
-0.4301181102362209
 21
2.296259842519685
 31
0.0
  0
LINE
  5
2274
330
1E
100
AcDbEntity
  8
3
100
AcDbLine
 10
-0.0974409448818898
 20
2.176181102362205
 30
0.0
 11
-0.1003937007874018
 21
2.176181102362205
 31
0.0
  0
LINE
  5
2275
330
1E
100
AcDbEntity
  8
3
100
AcDbLine
 10
-0.1003937007874018
 20
2.176181102362205
 30
0.0
 11
-0.1072834645669292
 21
2.176181102362205
 31
0.0
  0
LINE
  5
2276
330
1E
100
AcDbEntity
  8
3
100
AcDbLine
 10
-0.1269685039370079
 20
2.21259842519685
 30
0.0
 11
-0.1269685039370079
 21
2.176181102362205
 31
0.0
  0
LINE
  5
2277
330
1E
100
AcDbEntity
  8
3
100
AcDbLine
 10
-0.1269685039370079
 20
2.176181102362205
 30
0.0
 11
-0.1072834645669292
 21
2.176181102362205
 31
0.0
  0
LINE
  5
2278
330
1E
100
AcDbEntity
  8
3
100
AcDbLine
 10
-0.1072834645669292
 20
2.176181102362205
 30
0.0
 11
-0.1082677165354333
 21
2.21259842519685
 31
0.0
  0
LINE
  5
2279
330
1E
100
AcDbEntity
  8
3
100
AcDbLine
 10
-0.1269685039370079
 20
2.176181102362205
 30
0.0
 11
-0.1338582677165356
 21
2.176181102362205
 31
0.0
  0
LINE
  5
227A
330
1E
100
AcDbEntity
  8
3
100
AcDbLine
 10
-0.1338582677165356
 20
2.176181102362205
 30
0.0
 11
-0.1368110236220472
 21
2.176181102362205
 31
0.0
  0
LINE
  5
227B
330
1E
100
AcDbEntity
  8
3
100
AcDbLine
 10
-0.1368110236220472
 20
2.176181102362205
 30
0.0
 11
-0.1407480314960634
 21
2.176181102362205
 31
0.0
  0
LINE
  5
227C
330
1E
100
AcDbEntity
  8
3
100
AcDbLine
 10
-0.1407480314960634
 20
2.176181102362205
 30
0.0
 11
-0.1545275590551185
 21
2.176181102362205
 31
0.0
  0
LINE
  5
227D
330
1E
100
AcDbEntity
  8
3
100
AcDbLine
 10
-0.1545275590551185
 20
2.176181102362205
 30
0.0
 11
-0.173228346456693
 21
2.176181102362205
 31
0.0
  0
LINE
  5
227E
330
1E
100
AcDbEntity
  8
3
100
AcDbLine
 10
-0.173228346456693
 20
2.176181102362205
 30
0.0
 11
-0.1968503937007875
 21
2.176181102362205
 31
0.0
  0
LINE
  5
227F
330
1E
100
AcDbEntity
  8
3
100
AcDbLine
 10
-0.4084645669291343
 20
2.176181102362205
 30
0.0
 11
-0.1968503937007875
 21
2.176181102362205
 31
0.0
  0
LINE
  5
2280
330
1E
100
AcDbEntity
  8
3
100
AcDbLine
 10
-0.1968503937007875
 20
2.176181102362205
 30
0.0
 11
-0.1988188976377954
 21
2.296259842519685
 31
0.0
  0
LINE
  5
2281
330
1E
100
AcDbEntity
  8
3
100
AcDbLine
 10
-0.1988188976377954
 20
2.296259842519685
 30
0.0
 11
-0.1751968503937009
 21
2.296259842519685
 31
0.0
  0
LINE
  5
2282
330
1E
100
AcDbEntity
  8
3
100
AcDbLine
 10
-0.1751968503937009
 20
2.296259842519685
 30
0.0
 11
-0.1564960629921264
 21
2.296259842519685
 31
0.0
  0
LINE
  5
2283
330
1E
100
AcDbEntity
  8
3
100
AcDbLine
 10
-0.1564960629921264
 20
2.296259842519685
 30
0.0
 11
-0.1427165354330713
 21
2.296259842519685
 31
0.0
  0
LINE
  5
2284
330
1E
100
AcDbEntity
  8
3
100
AcDbLine
 10
-0.1427165354330713
 20
2.296259842519685
 30
0.0
 11
-0.1387795275590551
 21
2.296259842519685
 31
0.0
  0
LINE
  5
2285
330
1E
100
AcDbEntity
  8
3
100
AcDbLine
 10
-0.4301181102362209
 20
2.296259842519685
 30
0.0
 11
-0.4163385826771658
 21
2.296259842519685
 31
0.0
  0
LINE
  5
2286
330
1E
100
AcDbEntity
  8
3
100
AcDbLine
 10
-0.4163385826771658
 20
2.296259842519685
 30
0.0
 11
-0.4104330708661422
 21
2.296259842519685
 31
0.0
  0
LINE
  5
2287
330
1E
100
AcDbEntity
  8
3
100
AcDbLine
 10
-0.1082677165354333
 20
2.21259842519685
 30
0.0
 11
-0.1013779527559055
 21
2.21259842519685
 31
0.0
  0
LINE
  5
2288
330
1E
100
AcDbEntity
  8
3
100
AcDbLine
 10
-0.1013779527559055
 20
2.21259842519685
 30
0.0
 11
-0.098425196850394
 21
2.21259842519685
 31
0.0
  0
LINE
  5
2289
330
1E
100
AcDbEntity
  8
3
100
AcDbLine
 10
-0.1289370078740157
 20
2.21259842519685
 30
0.0
 11
-0.1318897637795278
 21
2.21259842519685
 31
0.0
  0
LINE
  5
228A
330
1E
100
AcDbEntity
  8
3
100
AcDbLine
 10
-0.1318897637795278
 20
2.21259842519685
 30
0.0
 11
-0.1338582677165356
 21
2.213582677165354
 31
0.0
  0
LINE
  5
228B
330
1E
100
AcDbEntity
  8
3
100
AcDbLine
 10
-0.1338582677165356
 20
2.213582677165354
 30
0.0
 11
-0.1358267716535435
 21
2.215551181102362
 31
0.0
  0
LINE
  5
228C
330
1E
100
AcDbEntity
  8
3
100
AcDbLine
 10
-0.1358267716535435
 20
2.215551181102362
 30
0.0
 11
-0.1368110236220472
 21
2.219488188976378
 31
0.0
  0
LINE
  5
228D
330
1E
100
AcDbEntity
  8
3
100
AcDbLine
 10
-0.1368110236220472
 20
2.219488188976378
 30
0.0
 11
-0.1368110236220472
 21
2.220472440944882
 31
0.0
  0
LINE
  5
228E
330
1E
100
AcDbEntity
  8
3
100
AcDbLine
 10
-1.511811023622047
 20
1.875984251968504
 30
0.0
 11
-1.511811023622047
 21
1.875
 31
0.0
  0
LINE
  5
228F
330
1E
100
AcDbEntity
  8
3
100
AcDbLine
 10
-1.511811023622047
 20
1.875
 30
0.0
 11
-1.511811023622047
 21
1.873031496062992
 31
0.0
  0
LINE
  5
2290
330
1E
100
AcDbEntity
  8
3
100
AcDbLine
 10
-1.511811023622047
 20
1.873031496062992
 30
0.0
 11
-1.510826771653543
 21
1.871062992125984
 31
0.0
  0
LINE
  5
2291
330
1E
100
AcDbEntity
  8
3
100
AcDbLine
 10
-1.510826771653543
 20
1.871062992125984
 30
0.0
 11
-1.508858267716535
 21
1.867125984251968
 31
0.0
  0
LINE
  5
2292
330
1E
100
AcDbEntity
  8
3
100
AcDbLine
 10
-1.508858267716535
 20
1.867125984251968
 30
0.0
 11
-1.505905511811023
 21
1.864173228346457
 31
0.0
  0
LINE
  5
2293
330
1E
100
AcDbEntity
  8
3
100
AcDbLine
 10
-1.505905511811023
 20
1.864173228346457
 30
0.0
 11
-1.502952755905512
 21
1.862204724409449
 31
0.0
  0
LINE
  5
2294
330
1E
100
AcDbEntity
  8
3
100
AcDbLine
 10
-1.502952755905512
 20
1.862204724409449
 30
0.0
 11
-1.5
 21
1.861220472440945
 31
0.0
  0
LINE
  5
2295
330
1E
100
AcDbEntity
  8
3
100
AcDbLine
 10
-1.5
 20
1.861220472440945
 30
0.0
 11
-1.497047244094488
 21
1.861220472440945
 31
0.0
  0
LINE
  5
2296
330
1E
100
AcDbEntity
  8
3
100
AcDbLine
 10
-1.497047244094488
 20
1.861220472440945
 30
0.0
 11
-1.493110236220472
 21
1.861220472440945
 31
0.0
  0
LINE
  5
2297
330
1E
100
AcDbEntity
  8
3
100
AcDbLine
 10
-0.4330708661417324
 20
1.861220472440945
 30
0.0
 11
-0.4291338582677167
 21
1.861220472440945
 31
0.0
  0
LINE
  5
2298
330
1E
100
AcDbEntity
  8
3
100
AcDbLine
 10
-0.4291338582677167
 20
1.861220472440945
 30
0.0
 11
-0.4261811023622051
 21
1.861220472440945
 31
0.0
  0
LINE
  5
2299
330
1E
100
AcDbEntity
  8
3
100
AcDbLine
 10
-0.4261811023622051
 20
1.861220472440945
 30
0.0
 11
-0.4222440944881894
 21
1.862204724409449
 31
0.0
  0
LINE
  5
229A
330
1E
100
AcDbEntity
  8
3
100
AcDbLine
 10
-0.4222440944881894
 20
1.862204724409449
 30
0.0
 11
-0.4192913385826773
 21
1.864173228346457
 31
0.0
  0
LINE
  5
229B
330
1E
100
AcDbEntity
  8
3
100
AcDbLine
 10
-0.4192913385826773
 20
1.864173228346457
 30
0.0
 11
-0.4163385826771658
 21
1.867125984251968
 31
0.0
  0
LINE
  5
229C
330
1E
100
AcDbEntity
  8
3
100
AcDbLine
 10
-0.4163385826771658
 20
1.867125984251968
 30
0.0
 11
-0.4143700787401579
 21
1.871062992125984
 31
0.0
  0
LINE
  5
229D
330
1E
100
AcDbEntity
  8
3
100
AcDbLine
 10
-0.4143700787401579
 20
1.871062992125984
 30
0.0
 11
-0.4133858267716537
 21
1.875
 31
0.0
  0
LINE
  5
229E
330
1E
100
AcDbEntity
  8
3
100
AcDbLine
 10
-0.4133858267716537
 20
1.875
 30
0.0
 11
-0.4133858267716537
 21
1.875984251968504
 31
0.0
  0
LINE
  5
229F
330
1E
100
AcDbEntity
  8
3
100
AcDbLine
 10
-1.590551181102362
 20
2.037401574803149
 30
0.0
 11
-1.588582677165354
 21
2.031496062992125
 31
0.0
  0
LINE
  5
22A0
330
1E
100
AcDbEntity
  8
3
100
AcDbLine
 10
-1.588582677165354
 20
2.031496062992125
 30
0.0
 11
-1.586614173228346
 21
2.02755905511811
 31
0.0
  0
LINE
  5
22A1
330
1E
100
AcDbEntity
  8
3
100
AcDbLine
 10
-1.586614173228346
 20
2.02755905511811
 30
0.0
 11
-1.583661417322834
 21
2.023622047244094
 31
0.0
  0
LINE
  5
22A2
330
1E
100
AcDbEntity
  8
3
100
AcDbLine
 10
-1.583661417322834
 20
2.023622047244094
 30
0.0
 11
-1.578740157480314
 21
2.020669291338583
 31
0.0
  0
LINE
  5
22A3
330
1E
100
AcDbEntity
  8
3
100
AcDbLine
 10
-1.578740157480314
 20
2.020669291338583
 30
0.0
 11
-1.573818897637795
 21
2.019685039370078
 31
0.0
  0
LINE
  5
22A4
330
1E
100
AcDbEntity
  8
3
100
AcDbLine
 10
-1.573818897637795
 20
2.019685039370078
 30
0.0
 11
-1.569881889763779
 21
2.018700787401574
 31
0.0
  0
LINE
  5
22A5
330
1E
100
AcDbEntity
  8
3
100
AcDbLine
 10
-1.569881889763779
 20
2.018700787401574
 30
0.0
 11
-1.565944881889763
 21
2.018700787401574
 31
0.0
  0
LINE
  5
22A6
330
1E
100
AcDbEntity
  8
3
100
AcDbLine
 10
-0.3602362204724412
 20
2.018700787401574
 30
0.0
 11
-0.3562992125984254
 21
2.018700787401574
 31
0.0
  0
LINE
  5
22A7
330
1E
100
AcDbEntity
  8
3
100
AcDbLine
 10
-0.3562992125984254
 20
2.018700787401574
 30
0.0
 11
-0.3523622047244097
 21
2.019685039370078
 31
0.0
  0
LINE
  5
22A8
330
1E
100
AcDbEntity
  8
3
100
AcDbLine
 10
-0.3523622047244097
 20
2.019685039370078
 30
0.0
 11
-0.3474409448818898
 21
2.020669291338583
 31
0.0
  0
LINE
  5
22A9
330
1E
100
AcDbEntity
  8
3
100
AcDbLine
 10
-0.3474409448818898
 20
2.020669291338583
 30
0.0
 11
-0.3435039370078741
 21
2.023622047244094
 31
0.0
  0
LINE
  5
22AA
330
1E
100
AcDbEntity
  8
3
100
AcDbLine
 10
-0.3435039370078741
 20
2.023622047244094
 30
0.0
 11
-0.3385826771653546
 21
2.031496062992125
 31
0.0
  0
LINE
  5
22AB
330
1E
100
AcDbEntity
  8
3
100
AcDbLine
 10
-0.3385826771653546
 20
2.031496062992125
 30
0.0
 11
-0.3375984251968505
 21
2.037401574803149
 31
0.0
  0
LINE
  5
22AC
330
1E
100
AcDbEntity
  8
3
100
AcDbLine
 10
-0.3375984251968505
 20
2.037401574803149
 30
0.0
 11
-0.3375984251968505
 21
2.038385826771653
 31
0.0
  0
LINE
  5
22AD
330
1E
100
AcDbEntity
  8
3
100
AcDbLine
 10
-1.493110236220472
 20
-0.2687007874015745
 30
0.0
 11
-1.493110236220472
 21
-0.2647637795275584
 31
0.0
  0
LINE
  5
22AE
330
1E
100
AcDbEntity
  8
3
100
AcDbLine
 10
-1.493110236220472
 20
-0.2647637795275584
 30
0.0
 11
-1.493110236220472
 21
-0.2539370078740157
 31
0.0
  0
LINE
  5
22AF
330
1E
100
AcDbEntity
  8
3
100
AcDbLine
 10
-1.498031496062992
 20
-0.2490157480314954
 30
0.0
 11
-1.507874015748031
 21
-0.2490157480314954
 31
0.0
  0
LINE
  5
22B0
330
1E
100
AcDbEntity
  8
3
100
AcDbLine
 10
-1.507874015748031
 20
-0.2490157480314954
 30
0.0
 11
-1.512795275590551
 21
-0.2490157480314954
 31
0.0
  0
LINE
  5
22B1
330
1E
100
AcDbEntity
  8
3
100
AcDbLine
 10
-0.4330708661417324
 20
-0.2687007874015745
 30
0.0
 11
-0.4330708661417324
 21
-0.2647637795275584
 31
0.0
  0
LINE
  5
22B2
330
1E
100
AcDbEntity
  8
3
100
AcDbLine
 10
-0.4330708661417324
 20
-0.2647637795275584
 30
0.0
 11
-0.4330708661417324
 21
-0.2539370078740157
 31
0.0
  0
LINE
  5
22B3
330
1E
100
AcDbEntity
  8
3
100
AcDbLine
 10
-1.498031496062992
 20
0.6003937007874019
 30
0.0
 11
-1.507874015748031
 21
0.6003937007874019
 31
0.0
  0
LINE
  5
22B4
330
1E
100
AcDbEntity
  8
3
100
AcDbLine
 10
-1.507874015748031
 20
0.6003937007874019
 30
0.0
 11
-1.512795275590551
 21
0.6003937007874019
 31
0.0
  0
LINE
  5
22B5
330
1E
100
AcDbEntity
  8
3
100
AcDbLine
 10
-0.4133858267716537
 20
-0.2490157480314954
 30
0.0
 11
-0.4173228346456695
 21
-0.2490157480314954
 31
0.0
  0
LINE
  5
22B6
330
1E
100
AcDbEntity
  8
3
100
AcDbLine
 10
-0.4173228346456695
 20
-0.2490157480314954
 30
0.0
 11
-0.428149606299213
 21
-0.2490157480314954
 31
0.0
  0
LINE
  5
22B7
330
1E
100
AcDbEntity
  8
3
100
AcDbLine
 10
-1.493110236220472
 20
0.6053149606299213
 30
0.0
 11
-1.493110236220472
 21
0.6161417322834648
 31
0.0
  0
LINE
  5
22B8
330
1E
100
AcDbEntity
  8
3
100
AcDbLine
 10
-1.493110236220472
 20
0.6161417322834648
 30
0.0
 11
-1.493110236220472
 21
0.6210629921259843
 31
0.0
  0
LINE
  5
22B9
330
1E
100
AcDbEntity
  8
3
100
AcDbLine
 10
-0.4330708661417324
 20
0.6053149606299213
 30
0.0
 11
-0.4330708661417324
 21
0.6161417322834648
 31
0.0
  0
LINE
  5
22BA
330
1E
100
AcDbEntity
  8
3
100
AcDbLine
 10
-0.4330708661417324
 20
0.6161417322834648
 30
0.0
 11
-0.4330708661417324
 21
0.6210629921259843
 31
0.0
  0
LINE
  5
22BB
330
1E
100
AcDbEntity
  8
3
100
AcDbLine
 10
-0.4133858267716537
 20
0.6003937007874019
 30
0.0
 11
-0.4173228346456695
 21
0.6003937007874019
 31
0.0
  0
LINE
  5
22BC
330
1E
100
AcDbEntity
  8
3
100
AcDbLine
 10
-0.4173228346456695
 20
0.6003937007874019
 30
0.0
 11
-0.428149606299213
 21
0.6003937007874019
 31
0.0
  0
LINE
  5
22BD
330
1E
100
AcDbEntity
  8
3
100
AcDbLine
 10
-0.4133858267716537
 20
-0.2490157480314954
 30
0.0
 11
-0.4192913385826773
 21
-0.2627952755905509
 31
0.0
  0
LINE
  5
22BE
330
1E
100
AcDbEntity
  8
3
100
AcDbLine
 10
-0.4192913385826773
 20
-0.2627952755905509
 30
0.0
 11
-0.4330708661417324
 21
-0.2687007874015745
 31
0.0
  0
LINE
  5
22BF
330
1E
100
AcDbEntity
  8
3
100
AcDbLine
 10
-0.4330708661417324
 20
0.6210629921259843
 30
0.0
 11
-0.4192913385826773
 21
0.6151574803149611
 31
0.0
  0
LINE
  5
22C0
330
1E
100
AcDbEntity
  8
3
100
AcDbLine
 10
-0.4192913385826773
 20
0.6151574803149611
 30
0.0
 11
-0.4133858267716537
 21
0.6003937007874019
 31
0.0
  0
LINE
  5
22C1
330
1E
100
AcDbEntity
  8
3
100
AcDbLine
 10
-1.493110236220472
 20
-0.2687007874015745
 30
0.0
 11
-1.506889763779527
 21
-0.2627952755905509
 31
0.0
  0
LINE
  5
22C2
330
1E
100
AcDbEntity
  8
3
100
AcDbLine
 10
-1.506889763779527
 20
-0.2627952755905509
 30
0.0
 11
-1.512795275590551
 21
-0.2490157480314954
 31
0.0
  0
LINE
  5
22C3
330
1E
100
AcDbEntity
  8
3
100
AcDbLine
 10
-1.512795275590551
 20
0.6003937007874019
 30
0.0
 11
-1.506889763779527
 21
0.6151574803149611
 31
0.0
  0
LINE
  5
22C4
330
1E
100
AcDbEntity
  8
3
100
AcDbLine
 10
-1.506889763779527
 20
0.6151574803149611
 30
0.0
 11
-1.493110236220472
 21
0.6210629921259843
 31
0.0
  0
LINE
  5
22C5
330
1E
100
AcDbEntity
  8
3
100
AcDbLine
 10
-1.565944881889763
 20
0.4881889763779528
 30
0.0
 11
-1.565944881889763
 21
0.4822834645669296
 31
0.0
  0
LINE
  5
22C6
330
1E
100
AcDbEntity
  8
3
100
AcDbLine
 10
-1.565944881889763
 20
0.4822834645669296
 30
0.0
 11
-1.565944881889763
 21
0.4685039370078741
 31
0.0
  0
LINE
  5
22C7
330
1E
100
AcDbEntity
  8
3
100
AcDbLine
 10
-1.590551181102362
 20
0.4635826771653547
 30
0.0
 11
-1.584645669291338
 21
0.4635826771653547
 31
0.0
  0
LINE
  5
22C8
330
1E
100
AcDbEntity
  8
3
100
AcDbLine
 10
-1.584645669291338
 20
0.4635826771653547
 30
0.0
 11
-1.570866141732283
 21
0.4635826771653547
 31
0.0
  0
LINE
  5
22C9
330
1E
100
AcDbEntity
  8
3
100
AcDbLine
 10
-1.590551181102362
 20
-0.1112204724409445
 30
0.0
 11
-1.584645669291338
 21
-0.1112204724409445
 31
0.0
  0
LINE
  5
22CA
330
1E
100
AcDbEntity
  8
3
100
AcDbLine
 10
-1.584645669291338
 20
-0.1112204724409445
 30
0.0
 11
-1.570866141732283
 21
-0.1112204724409445
 31
0.0
  0
LINE
  5
22CB
330
1E
100
AcDbEntity
  8
3
100
AcDbLine
 10
-1.565944881889763
 20
-0.1368110236220472
 30
0.0
 11
-1.565944881889763
 21
-0.1309055118110232
 31
0.0
  0
LINE
  5
22CC
330
1E
100
AcDbEntity
  8
3
100
AcDbLine
 10
-1.565944881889763
 20
-0.1309055118110232
 30
0.0
 11
-1.565944881889763
 21
-0.1171259842519685
 31
0.0
  0
LINE
  5
22CD
330
1E
100
AcDbEntity
  8
3
100
AcDbLine
 10
-1.565944881889763
 20
-0.1368110236220472
 30
0.0
 11
-1.577755905511811
 21
-0.1328740157480315
 31
0.0
  0
LINE
  5
22CE
330
1E
100
AcDbEntity
  8
3
100
AcDbLine
 10
-1.577755905511811
 20
-0.1328740157480315
 30
0.0
 11
-1.58759842519685
 21
-0.1240157480314954
 31
0.0
  0
LINE
  5
22CF
330
1E
100
AcDbEntity
  8
3
100
AcDbLine
 10
-1.58759842519685
 20
-0.1240157480314954
 30
0.0
 11
-1.590551181102362
 21
-0.1112204724409445
 31
0.0
  0
LINE
  5
22D0
330
1E
100
AcDbEntity
  8
3
100
AcDbLine
 10
-1.590551181102362
 20
0.4635826771653547
 30
0.0
 11
-1.58759842519685
 21
0.4763779527559056
 31
0.0
  0
LINE
  5
22D1
330
1E
100
AcDbEntity
  8
3
100
AcDbLine
 10
-1.58759842519685
 20
0.4763779527559056
 30
0.0
 11
-1.577755905511811
 21
0.4852362204724417
 31
0.0
  0
LINE
  5
22D2
330
1E
100
AcDbEntity
  8
3
100
AcDbLine
 10
-1.577755905511811
 20
0.4852362204724417
 30
0.0
 11
-1.565944881889763
 21
0.4881889763779528
 31
0.0
  0
LINE
  5
22D3
330
1E
100
AcDbEntity
  8
3
100
AcDbLine
 10
-0.3602362204724412
 20
0.4685039370078741
 30
0.0
 11
-0.3602362204724412
 21
0.4822834645669296
 31
0.0
  0
LINE
  5
22D4
330
1E
100
AcDbEntity
  8
3
100
AcDbLine
 10
-0.3602362204724412
 20
0.4822834645669296
 30
0.0
 11
-0.3602362204724412
 21
0.4881889763779528
 31
0.0
  0
LINE
  5
22D5
330
1E
100
AcDbEntity
  8
3
100
AcDbLine
 10
-0.3553149606299213
 20
0.4635826771653547
 30
0.0
 11
-0.3415354330708662
 21
0.4635826771653547
 31
0.0
  0
LINE
  5
22D6
330
1E
100
AcDbEntity
  8
3
100
AcDbLine
 10
-0.3415354330708662
 20
0.4635826771653547
 30
0.0
 11
-0.3356299212598426
 21
0.4635826771653547
 31
0.0
  0
LINE
  5
22D7
330
1E
100
AcDbEntity
  8
3
100
AcDbLine
 10
-0.3553149606299213
 20
-0.1112204724409445
 30
0.0
 11
-0.3415354330708662
 21
-0.1112204724409445
 31
0.0
  0
LINE
  5
22D8
330
1E
100
AcDbEntity
  8
3
100
AcDbLine
 10
-0.3415354330708662
 20
-0.1112204724409445
 30
0.0
 11
-0.3356299212598426
 21
-0.1112204724409445
 31
0.0
  0
LINE
  5
22D9
330
1E
100
AcDbEntity
  8
3
100
AcDbLine
 10
-0.3602362204724412
 20
-0.1171259842519685
 30
0.0
 11
-0.3602362204724412
 21
-0.1309055118110232
 31
0.0
  0
LINE
  5
22DA
330
1E
100
AcDbEntity
  8
3
100
AcDbLine
 10
-0.3602362204724412
 20
-0.1309055118110232
 30
0.0
 11
-0.3602362204724412
 21
-0.1368110236220472
 31
0.0
  0
LINE
  5
22DB
330
1E
100
AcDbEntity
  8
3
100
AcDbLine
 10
-0.3385826771653546
 20
-0.1240157480314954
 30
0.0
 11
-0.3474409448818898
 21
-0.1328740157480315
 31
0.0
  0
LINE
  5
22DC
330
1E
100
AcDbEntity
  8
3
100
AcDbLine
 10
-0.3474409448818898
 20
-0.1328740157480315
 30
0.0
 11
-0.3602362204724412
 21
-0.1368110236220472
 31
0.0
  0
LINE
  5
22DD
330
1E
100
AcDbEntity
  8
3
100
AcDbLine
 10
-0.3602362204724412
 20
0.4881889763779528
 30
0.0
 11
-0.3474409448818898
 21
0.4852362204724417
 31
0.0
  0
LINE
  5
22DE
330
1E
100
AcDbEntity
  8
3
100
AcDbLine
 10
-0.3474409448818898
 20
0.4852362204724417
 30
0.0
 11
-0.3385826771653546
 21
0.4763779527559056
 31
0.0
  0
LINE
  5
22DF
330
1E
100
AcDbEntity
  8
3
100
AcDbLine
 10
-0.3385826771653546
 20
0.4763779527559056
 30
0.0
 11
-0.3356299212598426
 21
0.4635826771653547
 31
0.0
  0
LINE
  5
22E0
330
1E
100
AcDbEntity
  8
3
100
AcDbLine
 10
-0.4104330708661422
 20
0.4685039370078741
 30
0.0
 11
-0.4104330708661422
 21
0.4822834645669296
 31
0.0
  0
LINE
  5
22E1
330
1E
100
AcDbEntity
  8
3
100
AcDbLine
 10
-0.4104330708661422
 20
0.4822834645669296
 30
0.0
 11
-0.4104330708661422
 21
0.4881889763779528
 31
0.0
  0
LINE
  5
22E2
330
1E
100
AcDbEntity
  8
3
100
AcDbLine
 10
-0.4104330708661422
 20
-0.1368110236220472
 30
0.0
 11
-0.4104330708661422
 21
-0.1309055118110232
 31
0.0
  0
LINE
  5
22E3
330
1E
100
AcDbEntity
  8
3
100
AcDbLine
 10
-0.4104330708661422
 20
-0.1309055118110232
 30
0.0
 11
-0.4104330708661422
 21
-0.1171259842519685
 31
0.0
  0
LINE
  5
22E4
330
1E
100
AcDbEntity
  8
3
100
AcDbLine
 10
-0.4133858267716537
 20
0.6003937007874019
 30
0.0
 11
-0.4133858267716537
 21
-0.2490157480314954
 31
0.0
  0
LINE
  5
22E5
330
1E
100
AcDbEntity
  8
3
100
AcDbLine
 10
-0.4133858267716537
 20
-0.2490157480314954
 30
0.0
 11
-0.4084645669291343
 21
-0.2539370078740157
 31
0.0
  0
LINE
  5
22E6
330
1E
100
AcDbEntity
  8
3
100
AcDbLine
 10
-0.3582677165354333
 20
-0.1387795275590546
 30
0.0
 11
-0.3602362204724412
 21
-0.1368110236220472
 31
0.0
  0
LINE
  5
22E7
330
1E
100
AcDbEntity
  8
3
100
AcDbLine
 10
-0.3602362204724412
 20
-0.1368110236220472
 30
0.0
 11
-0.4104330708661422
 21
-0.1368110236220472
 31
0.0
  0
LINE
  5
22E8
330
1E
100
AcDbEntity
  8
3
100
AcDbLine
 10
-0.4104330708661422
 20
-0.1171259842519685
 30
0.0
 11
-0.3602362204724412
 21
-0.1171259842519685
 31
0.0
  0
LINE
  5
22E9
330
1E
100
AcDbEntity
  8
3
100
AcDbLine
 10
-0.3602362204724412
 20
-0.1171259842519685
 30
0.0
 11
-0.3553149606299213
 21
-0.1112204724409445
 31
0.0
  0
LINE
  5
22EA
330
1E
100
AcDbEntity
  8
3
100
AcDbLine
 10
-0.3553149606299213
 20
-0.1112204724409445
 30
0.0
 11
-0.3553149606299213
 21
0.4635826771653547
 31
0.0
  0
LINE
  5
22EB
330
1E
100
AcDbEntity
  8
3
100
AcDbLine
 10
-0.3553149606299213
 20
0.4635826771653547
 30
0.0
 11
-0.3602362204724412
 21
0.4685039370078741
 31
0.0
  0
LINE
  5
22EC
330
1E
100
AcDbEntity
  8
3
100
AcDbLine
 10
-0.3602362204724412
 20
0.4685039370078741
 30
0.0
 11
-0.4104330708661422
 21
0.4685039370078741
 31
0.0
  0
LINE
  5
22ED
330
1E
100
AcDbEntity
  8
3
100
AcDbLine
 10
-0.4084645669291343
 20
0.4911417322834648
 30
0.0
 11
-0.4104330708661422
 21
0.4881889763779528
 31
0.0
  0
LINE
  5
22EE
330
1E
100
AcDbEntity
  8
3
100
AcDbLine
 10
-0.4104330708661422
 20
0.4881889763779528
 30
0.0
 11
-0.3602362204724412
 21
0.4881889763779528
 31
0.0
  0
LINE
  5
22EF
330
1E
100
AcDbEntity
  8
3
100
AcDbLine
 10
-0.3602362204724412
 20
0.4881889763779528
 30
0.0
 11
-0.3582677165354333
 21
0.4911417322834648
 31
0.0
  0
LINE
  5
22F0
330
1E
100
AcDbEntity
  8
3
100
AcDbLine
 10
-0.332677165354331
 20
0.465551181102363
 30
0.0
 11
-0.3356299212598426
 21
0.4635826771653547
 31
0.0
  0
LINE
  5
22F1
330
1E
100
AcDbEntity
  8
3
100
AcDbLine
 10
-0.3356299212598426
 20
0.4635826771653547
 30
0.0
 11
-0.3356299212598426
 21
-0.1112204724409445
 31
0.0
  0
LINE
  5
22F2
330
1E
100
AcDbEntity
  8
3
100
AcDbLine
 10
-0.3356299212598426
 20
-0.1112204724409445
 30
0.0
 11
-0.332677165354331
 21
-0.1141732283464565
 31
0.0
  0
LINE
  5
22F3
330
1E
100
AcDbEntity
  8
3
100
AcDbLine
 10
-1.567913385826771
 20
0.4911417322834648
 30
0.0
 11
-1.565944881889763
 21
0.4881889763779528
 31
0.0
  0
LINE
  5
22F4
330
1E
100
AcDbEntity
  8
3
100
AcDbLine
 10
-1.565944881889763
 20
0.4881889763779528
 30
0.0
 11
-1.515748031496063
 21
0.4881889763779528
 31
0.0
  0
LINE
  5
22F5
330
1E
100
AcDbEntity
  8
3
100
AcDbLine
 10
-1.593503937007874
 20
-0.1141732283464565
 30
0.0
 11
-1.590551181102362
 21
-0.1112204724409445
 31
0.0
  0
LINE
  5
22F6
330
1E
100
AcDbEntity
  8
3
100
AcDbLine
 10
-1.590551181102362
 20
-0.1112204724409445
 30
0.0
 11
-1.590551181102362
 21
0.4635826771653547
 31
0.0
  0
LINE
  5
22F7
330
1E
100
AcDbEntity
  8
3
100
AcDbLine
 10
-1.590551181102362
 20
0.4635826771653547
 30
0.0
 11
-1.593503937007874
 21
0.465551181102363
 31
0.0
  0
LINE
  5
22F8
330
1E
100
AcDbEntity
  8
3
100
AcDbLine
 10
-1.515748031496063
 20
-0.1368110236220472
 30
0.0
 11
-1.565944881889763
 21
-0.1368110236220472
 31
0.0
  0
LINE
  5
22F9
330
1E
100
AcDbEntity
  8
3
100
AcDbLine
 10
-1.565944881889763
 20
-0.1368110236220472
 30
0.0
 11
-1.567913385826771
 21
-0.1387795275590546
 31
0.0
  0
LINE
  5
22FA
330
1E
100
AcDbEntity
  8
3
100
AcDbLine
 10
-1.515748031496063
 20
0.4685039370078741
 30
0.0
 11
-1.565944881889763
 21
0.4685039370078741
 31
0.0
  0
LINE
  5
22FB
330
1E
100
AcDbEntity
  8
3
100
AcDbLine
 10
-1.565944881889763
 20
0.4685039370078741
 30
0.0
 11
-1.570866141732283
 21
0.4635826771653547
 31
0.0
  0
LINE
  5
22FC
330
1E
100
AcDbEntity
  8
3
100
AcDbLine
 10
-1.570866141732283
 20
0.4635826771653547
 30
0.0
 11
-1.570866141732283
 21
-0.1112204724409445
 31
0.0
  0
LINE
  5
22FD
330
1E
100
AcDbEntity
  8
3
100
AcDbLine
 10
-1.570866141732283
 20
-0.1112204724409445
 30
0.0
 11
-1.565944881889763
 21
-0.1171259842519685
 31
0.0
  0
LINE
  5
22FE
330
1E
100
AcDbEntity
  8
3
100
AcDbLine
 10
-1.565944881889763
 20
-0.1171259842519685
 30
0.0
 11
-1.515748031496063
 21
-0.1171259842519685
 31
0.0
  0
LINE
  5
22FF
330
1E
100
AcDbEntity
  8
3
100
AcDbLine
 10
-1.515748031496063
 20
-0.1171259842519685
 30
0.0
 11
-1.515748031496063
 21
-0.1309055118110232
 31
0.0
  0
LINE
  5
2300
330
1E
100
AcDbEntity
  8
3
100
AcDbLine
 10
-1.515748031496063
 20
-0.1309055118110232
 30
0.0
 11
-1.515748031496063
 21
-0.1368110236220472
 31
0.0
  0
LINE
  5
2301
330
1E
100
AcDbEntity
  8
3
100
AcDbLine
 10
-1.517716535433071
 20
0.4911417322834648
 30
0.0
 11
-1.515748031496063
 21
0.4881889763779528
 31
0.0
  0
LINE
  5
2302
330
1E
100
AcDbEntity
  8
3
100
AcDbLine
 10
-1.515748031496063
 20
0.4881889763779528
 30
0.0
 11
-1.515748031496063
 21
0.4822834645669296
 31
0.0
  0
LINE
  5
2303
330
1E
100
AcDbEntity
  8
3
100
AcDbLine
 10
-1.515748031496063
 20
0.4822834645669296
 30
0.0
 11
-1.515748031496063
 21
0.4685039370078741
 31
0.0
  0
LINE
  5
2304
330
1E
100
AcDbEntity
  8
3
100
AcDbLine
 10
-1.515748031496063
 20
0.4685039370078741
 30
0.0
 11
-1.515748031496063
 21
-0.1171259842519685
 31
0.0
  0
LINE
  5
2305
330
1E
100
AcDbEntity
  8
3
100
AcDbLine
 10
-1.517716535433071
 20
-0.2539370078740157
 30
0.0
 11
-1.512795275590551
 21
-0.2490157480314954
 31
0.0
  0
LINE
  5
2306
330
1E
100
AcDbEntity
  8
3
100
AcDbLine
 10
-1.512795275590551
 20
-0.2490157480314954
 30
0.0
 11
-1.512795275590551
 21
0.6003937007874019
 31
0.0
  0
LINE
  5
2307
330
1E
100
AcDbEntity
  8
3
100
AcDbLine
 10
-1.512795275590551
 20
0.6003937007874019
 30
0.0
 11
-1.517716535433071
 21
0.6062992125984259
 31
0.0
  0
LINE
  5
2308
330
1E
100
AcDbEntity
  8
3
100
AcDbLine
 10
-1.225393700787401
 20
0.625
 30
0.0
 11
-1.248031496062992
 21
0.625
 31
0.0
  0
LINE
  5
2309
330
1E
100
AcDbEntity
  8
3
100
AcDbLine
 10
-1.248031496062992
 20
0.625
 30
0.0
 11
-1.266732283464567
 21
0.625
 31
0.0
  0
LINE
  5
230A
330
1E
100
AcDbEntity
  8
3
100
AcDbLine
 10
-1.266732283464567
 20
0.625
 30
0.0
 11
-1.280511811023622
 21
0.625
 31
0.0
  0
LINE
  5
230B
330
1E
100
AcDbEntity
  8
3
100
AcDbLine
 10
-1.280511811023622
 20
0.625
 30
0.0
 11
-1.285433070866141
 21
0.6259842519685046
 31
0.0
  0
LINE
  5
230C
330
1E
100
AcDbEntity
  8
3
100
AcDbLine
 10
-0.640748031496063
 20
0.6259842519685046
 30
0.0
 11
-0.6456692913385829
 21
0.625
 31
0.0
  0
LINE
  5
230D
330
1E
100
AcDbEntity
  8
3
100
AcDbLine
 10
-0.6456692913385829
 20
0.625
 30
0.0
 11
-0.6584645669291343
 21
0.625
 31
0.0
  0
LINE
  5
230E
330
1E
100
AcDbEntity
  8
3
100
AcDbLine
 10
-0.6584645669291343
 20
0.625
 30
0.0
 11
-0.678149606299213
 21
0.625
 31
0.0
  0
LINE
  5
230F
330
1E
100
AcDbEntity
  8
3
100
AcDbLine
 10
-0.678149606299213
 20
0.625
 30
0.0
 11
-0.7007874015748033
 21
0.625
 31
0.0
  0
LINE
  5
2310
330
1E
100
AcDbEntity
  8
3
100
AcDbLine
 10
-1.498031496062992
 20
0.6259842519685046
 30
0.0
 11
-1.493110236220472
 21
0.6210629921259843
 31
0.0
  0
LINE
  5
2311
330
1E
100
AcDbEntity
  8
3
100
AcDbLine
 10
-1.493110236220472
 20
0.6210629921259843
 30
0.0
 11
-0.4330708661417324
 21
0.6210629921259843
 31
0.0
  0
LINE
  5
2312
330
1E
100
AcDbEntity
  8
3
100
AcDbLine
 10
-0.4330708661417324
 20
0.6210629921259843
 30
0.0
 11
-0.428149606299213
 21
0.6259842519685046
 31
0.0
  0
LINE
  5
2313
330
1E
100
AcDbEntity
  8
3
100
AcDbLine
 10
-0.678149606299213
 20
-0.2726377952755903
 30
0.0
 11
-0.6584645669291343
 21
-0.273622047244094
 31
0.0
  0
LINE
  5
2314
330
1E
100
AcDbEntity
  8
3
100
AcDbLine
 10
-0.6584645669291343
 20
-0.273622047244094
 30
0.0
 11
-0.6456692913385829
 21
-0.273622047244094
 31
0.0
  0
LINE
  5
2315
330
1E
100
AcDbEntity
  8
3
100
AcDbLine
 10
-0.6456692913385829
 20
-0.273622047244094
 30
0.0
 11
-0.640748031496063
 21
-0.273622047244094
 31
0.0
  0
LINE
  5
2316
330
1E
100
AcDbEntity
  8
3
100
AcDbLine
 10
-1.285433070866141
 20
-0.273622047244094
 30
0.0
 11
-1.280511811023622
 21
-0.273622047244094
 31
0.0
  0
LINE
  5
2317
330
1E
100
AcDbEntity
  8
3
100
AcDbLine
 10
-1.280511811023622
 20
-0.273622047244094
 30
0.0
 11
-1.266732283464567
 21
-0.273622047244094
 31
0.0
  0
LINE
  5
2318
330
1E
100
AcDbEntity
  8
3
100
AcDbLine
 10
-1.266732283464567
 20
-0.273622047244094
 30
0.0
 11
-1.248031496062992
 21
-0.2726377952755903
 31
0.0
  0
LINE
  5
2319
330
1E
100
AcDbEntity
  8
3
100
AcDbLine
 10
-1.248031496062992
 20
-0.2726377952755903
 30
0.0
 11
-1.225393700787401
 21
-0.2726377952755903
 31
0.0
  0
LINE
  5
231A
330
1E
100
AcDbEntity
  8
3
100
AcDbLine
 10
-0.428149606299213
 20
-0.273622047244094
 30
0.0
 11
-0.4330708661417324
 21
-0.2687007874015745
 31
0.0
  0
LINE
  5
231B
330
1E
100
AcDbEntity
  8
3
100
AcDbLine
 10
-0.4330708661417324
 20
-0.2687007874015745
 30
0.0
 11
-1.493110236220472
 21
-0.2687007874015745
 31
0.0
  0
LINE
  5
231C
330
1E
100
AcDbEntity
  8
3
100
AcDbLine
 10
-1.493110236220472
 20
-0.2687007874015745
 30
0.0
 11
-1.498031496062992
 21
-0.273622047244094
 31
0.0
  0
LINE
  5
231D
330
1E
100
AcDbEntity
  8
3
100
AcDbLine
 10
-0.4330708661417324
 20
0.6053149606299213
 30
0.0
 11
-1.493110236220472
 21
0.6053149606299213
 31
0.0
  0
LINE
  5
231E
330
1E
100
AcDbEntity
  8
3
100
AcDbLine
 10
-1.493110236220472
 20
0.6053149606299213
 30
0.0
 11
-1.498031496062992
 21
0.6003937007874019
 31
0.0
  0
LINE
  5
231F
330
1E
100
AcDbEntity
  8
3
100
AcDbLine
 10
-1.498031496062992
 20
0.6003937007874019
 30
0.0
 11
-1.498031496062992
 21
-0.2490157480314954
 31
0.0
  0
LINE
  5
2320
330
1E
100
AcDbEntity
  8
3
100
AcDbLine
 10
-1.498031496062992
 20
-0.2490157480314954
 30
0.0
 11
-1.493110236220472
 21
-0.2539370078740157
 31
0.0
  0
LINE
  5
2321
330
1E
100
AcDbEntity
  8
3
100
AcDbLine
 10
-1.493110236220472
 20
-0.2539370078740157
 30
0.0
 11
-0.4330708661417324
 21
-0.2539370078740157
 31
0.0
  0
LINE
  5
2322
330
1E
100
AcDbEntity
  8
3
100
AcDbLine
 10
-0.4330708661417324
 20
-0.2539370078740157
 30
0.0
 11
-0.428149606299213
 21
-0.2490157480314954
 31
0.0
  0
LINE
  5
2323
330
1E
100
AcDbEntity
  8
3
100
AcDbLine
 10
-0.428149606299213
 20
-0.2490157480314954
 30
0.0
 11
-0.428149606299213
 21
0.6003937007874019
 31
0.0
  0
LINE
  5
2324
330
1E
100
AcDbEntity
  8
3
100
AcDbLine
 10
-0.428149606299213
 20
0.6003937007874019
 30
0.0
 11
-0.4330708661417324
 21
0.6053149606299213
 31
0.0
  0
LINE
  5
2325
330
1E
100
AcDbEntity
  8
3
100
AcDbLine
 10
-0.6496062992125986
 20
0.4931102362204732
 30
0.0
 11
-0.7165354330708662
 21
0.4931102362204732
 31
0.0
  0
LINE
  5
2326
330
1E
100
AcDbEntity
  8
3
100
AcDbLine
 10
-0.7165354330708662
 20
0.4931102362204732
 30
0.0
 11
-0.7185039370078741
 21
0.4921259842519686
 31
0.0
  0
LINE
  5
2327
330
1E
100
AcDbEntity
  8
3
100
AcDbLine
 10
-1.208661417322834
 20
0.559055118110237
 30
0.0
 11
-1.208661417322834
 21
0.4931102362204732
 31
0.0
  0
LINE
  5
2328
330
1E
100
AcDbEntity
  8
3
100
AcDbLine
 10
-1.208661417322834
 20
0.4931102362204732
 30
0.0
 11
-1.20767716535433
 21
0.4921259842519686
 31
0.0
  0
LINE
  5
2329
330
1E
100
AcDbEntity
  8
3
100
AcDbLine
 10
-0.8602362204724411
 20
0.4822834645669296
 30
0.0
 11
-0.8602362204724411
 21
0.5
 31
0.0
  0
LINE
  5
232A
330
1E
100
AcDbEntity
  8
3
100
AcDbLine
 10
-0.8602362204724411
 20
0.5
 30
0.0
 11
-0.8602362204724411
 21
0.518700787401575
 31
0.0
  0
LINE
  5
232B
330
1E
100
AcDbEntity
  8
3
100
AcDbLine
 10
-1.065944881889763
 20
0.4822834645669296
 30
0.0
 11
-1.065944881889763
 21
0.5
 31
0.0
  0
LINE
  5
232C
330
1E
100
AcDbEntity
  8
3
100
AcDbLine
 10
-1.065944881889763
 20
0.5
 30
0.0
 11
-1.064960629921259
 21
0.518700787401575
 31
0.0
  0
LINE
  5
232D
330
1E
100
AcDbEntity
  8
3
100
AcDbLine
 10
-1.064960629921259
 20
0.518700787401575
 30
0.0
 11
-1.064960629921259
 21
0.5403543307086621
 31
0.0
  0
LINE
  5
232E
330
1E
100
AcDbEntity
  8
3
100
AcDbLine
 10
-1.064960629921259
 20
0.5403543307086621
 30
0.0
 11
-1.065944881889763
 21
0.5452755905511815
 31
0.0
  0
LINE
  5
232F
330
1E
100
AcDbEntity
  8
3
100
AcDbLine
 10
-1.517716535433071
 20
-0.2539370078740157
 30
0.0
 11
-1.511811023622047
 21
-0.2677165354330704
 31
0.0
  0
LINE
  5
2330
330
1E
100
AcDbEntity
  8
3
100
AcDbLine
 10
-1.511811023622047
 20
-0.2677165354330704
 30
0.0
 11
-1.498031496062992
 21
-0.273622047244094
 31
0.0
  0
LINE
  5
2331
330
1E
100
AcDbEntity
  8
3
100
AcDbLine
 10
-1.498031496062992
 20
0.6259842519685046
 30
0.0
 11
-1.511811023622047
 21
0.6200787401574806
 31
0.0
  0
LINE
  5
2332
330
1E
100
AcDbEntity
  8
3
100
AcDbLine
 10
-1.511811023622047
 20
0.6200787401574806
 30
0.0
 11
-1.517716535433071
 21
0.6062992125984259
 31
0.0
  0
LINE
  5
2333
330
1E
100
AcDbEntity
  8
3
100
AcDbLine
 10
-1.593503937007874
 20
0.465551181102363
 30
0.0
 11
-1.589566929133858
 21
0.4783464566929139
 31
0.0
  0
LINE
  5
2334
330
1E
100
AcDbEntity
  8
3
100
AcDbLine
 10
-1.589566929133858
 20
0.4783464566929139
 30
0.0
 11
-1.580708661417322
 21
0.4872047244094491
 31
0.0
  0
LINE
  5
2335
330
1E
100
AcDbEntity
  8
3
100
AcDbLine
 10
-1.580708661417322
 20
0.4872047244094491
 30
0.0
 11
-1.567913385826771
 21
0.4911417322834648
 31
0.0
  0
LINE
  5
2336
330
1E
100
AcDbEntity
  8
3
100
AcDbLine
 10
-1.567913385826771
 20
-0.1387795275590546
 30
0.0
 11
-1.580708661417322
 21
-0.1358267716535426
 31
0.0
  0
LINE
  5
2337
330
1E
100
AcDbEntity
  8
3
100
AcDbLine
 10
-1.580708661417322
 20
-0.1358267716535426
 30
0.0
 11
-1.589566929133858
 21
-0.1269685039370074
 31
0.0
  0
LINE
  5
2338
330
1E
100
AcDbEntity
  8
3
100
AcDbLine
 10
-1.589566929133858
 20
-0.1269685039370074
 30
0.0
 11
-1.593503937007874
 21
-0.1141732283464565
 31
0.0
  0
LINE
  5
2339
330
1E
100
AcDbEntity
  8
3
100
AcDbLine
 10
-1.818897637795275
 20
0.5009842519685046
 30
0.0
 11
-1.825787401574803
 21
0.4980314960629926
 31
0.0
  0
LINE
  5
233A
330
1E
100
AcDbEntity
  8
3
100
AcDbLine
 10
-1.825787401574803
 20
0.4980314960629926
 30
0.0
 11
-1.828740157480314
 21
0.4911417322834648
 31
0.0
  0
LINE
  5
233B
330
1E
100
AcDbEntity
  8
3
100
AcDbLine
 10
-1.828740157480314
 20
0.3927165354330713
 30
0.0
 11
-1.825787401574803
 21
0.3858267716535435
 31
0.0
  0
LINE
  5
233C
330
1E
100
AcDbEntity
  8
3
100
AcDbLine
 10
-1.825787401574803
 20
0.3858267716535435
 30
0.0
 11
-1.818897637795275
 21
0.3828740157480315
 31
0.0
  0
LINE
  5
233D
330
1E
100
AcDbEntity
  8
3
100
AcDbLine
 10
-1.799212598425197
 20
0.3828740157480315
 30
0.0
 11
-1.792322834645669
 21
0.3799212598425203
 31
0.0
  0
LINE
  5
233E
330
1E
100
AcDbEntity
  8
3
100
AcDbLine
 10
-1.792322834645669
 20
0.3799212598425203
 30
0.0
 11
-1.789370078740157
 21
0.3730314960629926
 31
0.0
  0
LINE
  5
233F
330
1E
100
AcDbEntity
  8
3
100
AcDbLine
 10
-1.785433070866141
 20
0.3385826771653546
 30
0.0
 11
-1.774606299212598
 21
0.3277559055118111
 31
0.0
  0
LINE
  5
2340
330
1E
100
AcDbEntity
  8
3
100
AcDbLine
 10
-1.774606299212598
 20
0.3277559055118111
 30
0.0
 11
-1.759842519685039
 21
0.3238188976377954
 31
0.0
  0
LINE
  5
2341
330
1E
100
AcDbEntity
  8
3
100
AcDbLine
 10
-1.759842519685039
 20
0.3238188976377954
 30
0.0
 11
-1.744094488188976
 21
0.3198818897637796
 31
0.0
  0
LINE
  5
2342
330
1E
100
AcDbEntity
  8
3
100
AcDbLine
 10
-1.744094488188976
 20
0.3198818897637796
 30
0.0
 11
-1.733267716535433
 21
0.3080708661417324
 31
0.0
  0
LINE
  5
2343
330
1E
100
AcDbEntity
  8
3
100
AcDbLine
 10
-1.733267716535433
 20
0.3080708661417324
 30
0.0
 11
-1.729330708661417
 21
0.293307086614174
 31
0.0
  0
LINE
  5
2344
330
1E
100
AcDbEntity
  8
3
100
AcDbLine
 10
-1.729330708661417
 20
0.0580708661417324
 30
0.0
 11
-1.733267716535433
 21
0.0433070866141741
 31
0.0
  0
LINE
  5
2345
330
1E
100
AcDbEntity
  8
3
100
AcDbLine
 10
-1.733267716535433
 20
0.0433070866141741
 30
0.0
 11
-1.744094488188976
 21
0.0324803149606305
 31
0.0
  0
LINE
  5
2346
330
1E
100
AcDbEntity
  8
3
100
AcDbLine
 10
-1.744094488188976
 20
0.0324803149606305
 30
0.0
 11
-1.759842519685039
 21
0.0285433070866148
 31
0.0
  0
LINE
  5
2347
330
1E
100
AcDbEntity
  8
3
100
AcDbLine
 10
-1.759842519685039
 20
0.0285433070866148
 30
0.0
 11
-1.774606299212598
 21
0.0246062992125991
 31
0.0
  0
LINE
  5
2348
330
1E
100
AcDbEntity
  8
3
100
AcDbLine
 10
-1.774606299212598
 20
0.0246062992125991
 30
0.0
 11
-1.785433070866141
 21
0.0137795275590556
 31
0.0
  0
LINE
  5
2349
330
1E
100
AcDbEntity
  8
3
100
AcDbLine
 10
-1.785433070866141
 20
0.0137795275590556
 30
0.0
 11
-1.789370078740157
 21
-0.0019685039370074
 31
0.0
  0
LINE
  5
234A
330
1E
100
AcDbEntity
  8
3
100
AcDbLine
 10
-1.789370078740157
 20
-0.0206692913385824
 30
0.0
 11
-1.792322834645669
 21
-0.0285433070866139
 31
0.0
  0
LINE
  5
234B
330
1E
100
AcDbEntity
  8
3
100
AcDbLine
 10
-1.792322834645669
 20
-0.0285433070866139
 30
0.0
 11
-1.799212598425197
 21
-0.0314960629921259
 31
0.0
  0
LINE
  5
234C
330
1E
100
AcDbEntity
  8
3
100
AcDbLine
 10
-1.818897637795275
 20
-0.0314960629921259
 30
0.0
 11
-1.825787401574803
 21
-0.0344488188976371
 31
0.0
  0
LINE
  5
234D
330
1E
100
AcDbEntity
  8
3
100
AcDbLine
 10
-1.825787401574803
 20
-0.0344488188976371
 30
0.0
 11
-1.828740157480314
 21
-0.0413385826771648
 31
0.0
  0
LINE
  5
234E
330
1E
100
AcDbEntity
  8
3
100
AcDbLine
 10
-1.828740157480314
 20
-0.1387795275590546
 30
0.0
 11
-1.825787401574803
 21
-0.1456692913385824
 31
0.0
  0
LINE
  5
234F
330
1E
100
AcDbEntity
  8
3
100
AcDbLine
 10
-1.825787401574803
 20
-0.1456692913385824
 30
0.0
 11
-1.818897637795275
 21
-0.1486220472440944
 31
0.0
  0
LINE
  5
2350
330
1E
100
AcDbEntity
  8
3
100
AcDbLine
 10
-1.799212598425197
 20
-0.1486220472440944
 30
0.0
 11
-1.792322834645669
 21
-0.1515748031496056
 31
0.0
  0
LINE
  5
2351
330
1E
100
AcDbEntity
  8
3
100
AcDbLine
 10
-1.792322834645669
 20
-0.1515748031496056
 30
0.0
 11
-1.789370078740157
 21
-0.1594488188976371
 31
0.0
  0
LINE
  5
2352
330
1E
100
AcDbEntity
  8
3
100
AcDbLine
 10
-1.789370078740157
 20
-0.1771653543307083
 30
0.0
 11
-1.785433070866141
 21
-0.2007874015748028
 31
0.0
  0
LINE
  5
2353
330
1E
100
AcDbEntity
  8
3
100
AcDbLine
 10
-1.785433070866141
 20
-0.2007874015748028
 30
0.0
 11
-1.771653543307086
 21
-0.2194881889763778
 31
0.0
  0
LINE
  5
2354
330
1E
100
AcDbEntity
  8
3
100
AcDbLine
 10
-1.771653543307086
 20
-0.2194881889763778
 30
0.0
 11
-1.752952755905512
 21
-0.2332677165354324
 31
0.0
  0
LINE
  5
2355
330
1E
100
AcDbEntity
  8
3
100
AcDbLine
 10
-1.752952755905512
 20
-0.2332677165354324
 30
0.0
 11
-1.729330708661417
 21
-0.2372047244094482
 31
0.0
  0
LINE
  5
2356
330
1E
100
AcDbEntity
  8
3
100
AcDbLine
 10
-1.729330708661417
 20
0.5895669291338584
 30
0.0
 11
-1.752952755905512
 21
0.5846456692913389
 31
0.0
  0
LINE
  5
2357
330
1E
100
AcDbEntity
  8
3
100
AcDbLine
 10
-1.752952755905512
 20
0.5846456692913389
 30
0.0
 11
-1.771653543307086
 21
0.571850393700788
 31
0.0
  0
LINE
  5
2358
330
1E
100
AcDbEntity
  8
3
100
AcDbLine
 10
-1.771653543307086
 20
0.571850393700788
 30
0.0
 11
-1.785433070866141
 21
0.5521653543307093
 31
0.0
  0
LINE
  5
2359
330
1E
100
AcDbEntity
  8
3
100
AcDbLine
 10
-1.785433070866141
 20
0.5521653543307093
 30
0.0
 11
-1.789370078740157
 21
0.5295275590551185
 31
0.0
  0
LINE
  5
235A
330
1E
100
AcDbEntity
  8
3
100
AcDbLine
 10
-1.789370078740157
 20
0.5108267716535435
 30
0.0
 11
-1.792322834645669
 21
0.5039370078740158
 31
0.0
  0
LINE
  5
235B
330
1E
100
AcDbEntity
  8
3
100
AcDbLine
 10
-1.792322834645669
 20
0.5039370078740158
 30
0.0
 11
-1.799212598425197
 21
0.5009842519685046
 31
0.0
  0
LINE
  5
235C
330
1E
100
AcDbEntity
  8
3
100
AcDbLine
 10
-0.428149606299213
 20
-0.273622047244094
 30
0.0
 11
-0.4133858267716537
 21
-0.2677165354330704
 31
0.0
  0
LINE
  5
235D
330
1E
100
AcDbEntity
  8
3
100
AcDbLine
 10
-0.4133858267716537
 20
-0.2677165354330704
 30
0.0
 11
-0.4084645669291343
 21
-0.2539370078740157
 31
0.0
  0
LINE
  5
235E
330
1E
100
AcDbEntity
  8
3
100
AcDbLine
 10
-0.4084645669291343
 20
0.6062992125984259
 30
0.0
 11
-0.4133858267716537
 21
0.6200787401574806
 31
0.0
  0
LINE
  5
235F
330
1E
100
AcDbEntity
  8
3
100
AcDbLine
 10
-0.4133858267716537
 20
0.6200787401574806
 30
0.0
 11
-0.428149606299213
 21
0.6259842519685046
 31
0.0
  0
LINE
  5
2360
330
1E
100
AcDbEntity
  8
3
100
AcDbLine
 10
-0.332677165354331
 20
-0.1141732283464565
 30
0.0
 11
-0.3366141732283467
 21
-0.1269685039370074
 31
0.0
  0
LINE
  5
2361
330
1E
100
AcDbEntity
  8
3
100
AcDbLine
 10
-0.3366141732283467
 20
-0.1269685039370074
 30
0.0
 11
-0.3454724409448819
 21
-0.1358267716535426
 31
0.0
  0
LINE
  5
2362
330
1E
100
AcDbEntity
  8
3
100
AcDbLine
 10
-0.3454724409448819
 20
-0.1358267716535426
 30
0.0
 11
-0.3582677165354333
 21
-0.1387795275590546
 31
0.0
  0
LINE
  5
2363
330
1E
100
AcDbEntity
  8
3
100
AcDbLine
 10
-0.3582677165354333
 20
0.4911417322834648
 30
0.0
 11
-0.3454724409448819
 21
0.4872047244094491
 31
0.0
  0
LINE
  5
2364
330
1E
100
AcDbEntity
  8
3
100
AcDbLine
 10
-0.3454724409448819
 20
0.4872047244094491
 30
0.0
 11
-0.3366141732283467
 21
0.4783464566929139
 31
0.0
  0
LINE
  5
2365
330
1E
100
AcDbEntity
  8
3
100
AcDbLine
 10
-0.3366141732283467
 20
0.4783464566929139
 30
0.0
 11
-0.332677165354331
 21
0.465551181102363
 31
0.0
  0
LINE
  5
2366
330
1E
100
AcDbEntity
  8
3
100
AcDbLine
 10
-0.0974409448818898
 20
0.4911417322834648
 30
0.0
 11
-0.1003937007874018
 21
0.4980314960629926
 31
0.0
  0
LINE
  5
2367
330
1E
100
AcDbEntity
  8
3
100
AcDbLine
 10
-0.1003937007874018
 20
0.4980314960629926
 30
0.0
 11
-0.1072834645669292
 21
0.5009842519685046
 31
0.0
  0
LINE
  5
2368
330
1E
100
AcDbEntity
  8
3
100
AcDbLine
 10
-0.1269685039370079
 20
0.5009842519685046
 30
0.0
 11
-0.1338582677165356
 21
0.5039370078740158
 31
0.0
  0
LINE
  5
2369
330
1E
100
AcDbEntity
  8
3
100
AcDbLine
 10
-0.1338582677165356
 20
0.5039370078740158
 30
0.0
 11
-0.1368110236220472
 21
0.5108267716535435
 31
0.0
  0
LINE
  5
236A
330
1E
100
AcDbEntity
  8
3
100
AcDbLine
 10
-0.1368110236220472
 20
0.5295275590551185
 30
0.0
 11
-0.1407480314960634
 21
0.5521653543307093
 31
0.0
  0
LINE
  5
236B
330
1E
100
AcDbEntity
  8
3
100
AcDbLine
 10
-0.1407480314960634
 20
0.5521653543307093
 30
0.0
 11
-0.1545275590551185
 21
0.571850393700788
 31
0.0
  0
LINE
  5
236C
330
1E
100
AcDbEntity
  8
3
100
AcDbLine
 10
-0.1545275590551185
 20
0.571850393700788
 30
0.0
 11
-0.173228346456693
 21
0.5846456692913389
 31
0.0
  0
LINE
  5
236D
330
1E
100
AcDbEntity
  8
3
100
AcDbLine
 10
-0.173228346456693
 20
0.5846456692913389
 30
0.0
 11
-0.1968503937007875
 21
0.5895669291338584
 31
0.0
  0
LINE
  5
236E
330
1E
100
AcDbEntity
  8
3
100
AcDbLine
 10
-0.1968503937007875
 20
-0.2372047244094482
 30
0.0
 11
-0.173228346456693
 21
-0.2332677165354324
 31
0.0
  0
LINE
  5
236F
330
1E
100
AcDbEntity
  8
3
100
AcDbLine
 10
-0.173228346456693
 20
-0.2332677165354324
 30
0.0
 11
-0.1545275590551185
 21
-0.2194881889763778
 31
0.0
  0
LINE
  5
2370
330
1E
100
AcDbEntity
  8
3
100
AcDbLine
 10
-0.1545275590551185
 20
-0.2194881889763778
 30
0.0
 11
-0.1407480314960634
 21
-0.2007874015748028
 31
0.0
  0
LINE
  5
2371
330
1E
100
AcDbEntity
  8
3
100
AcDbLine
 10
-0.1407480314960634
 20
-0.2007874015748028
 30
0.0
 11
-0.1368110236220472
 21
-0.1771653543307083
 31
0.0
  0
LINE
  5
2372
330
1E
100
AcDbEntity
  8
3
100
AcDbLine
 10
-0.1368110236220472
 20
-0.1594488188976371
 30
0.0
 11
-0.1338582677165356
 21
-0.1515748031496056
 31
0.0
  0
LINE
  5
2373
330
1E
100
AcDbEntity
  8
3
100
AcDbLine
 10
-0.1338582677165356
 20
-0.1515748031496056
 30
0.0
 11
-0.1269685039370079
 21
-0.1486220472440944
 31
0.0
  0
LINE
  5
2374
330
1E
100
AcDbEntity
  8
3
100
AcDbLine
 10
-0.1072834645669292
 20
-0.1486220472440944
 30
0.0
 11
-0.1003937007874018
 21
-0.1456692913385824
 31
0.0
  0
LINE
  5
2375
330
1E
100
AcDbEntity
  8
3
100
AcDbLine
 10
-0.1003937007874018
 20
-0.1456692913385824
 30
0.0
 11
-0.0974409448818898
 21
-0.1387795275590546
 31
0.0
  0
LINE
  5
2376
330
1E
100
AcDbEntity
  8
3
100
AcDbLine
 10
-0.0974409448818898
 20
-0.0413385826771648
 30
0.0
 11
-0.1003937007874018
 21
-0.0344488188976371
 31
0.0
  0
LINE
  5
2377
330
1E
100
AcDbEntity
  8
3
100
AcDbLine
 10
-0.1003937007874018
 20
-0.0344488188976371
 30
0.0
 11
-0.1072834645669292
 21
-0.0314960629921259
 31
0.0
  0
LINE
  5
2378
330
1E
100
AcDbEntity
  8
3
100
AcDbLine
 10
-0.1269685039370079
 20
-0.0314960629921259
 30
0.0
 11
-0.1338582677165356
 21
-0.0285433070866139
 31
0.0
  0
LINE
  5
2379
330
1E
100
AcDbEntity
  8
3
100
AcDbLine
 10
-0.1338582677165356
 20
-0.0285433070866139
 30
0.0
 11
-0.1368110236220472
 21
-0.0206692913385824
 31
0.0
  0
LINE
  5
237A
330
1E
100
AcDbEntity
  8
3
100
AcDbLine
 10
-0.1368110236220472
 20
-0.0019685039370074
 30
0.0
 11
-0.1407480314960634
 21
0.0137795275590556
 31
0.0
  0
LINE
  5
237B
330
1E
100
AcDbEntity
  8
3
100
AcDbLine
 10
-0.1407480314960634
 20
0.0137795275590556
 30
0.0
 11
-0.1515748031496065
 21
0.0246062992125991
 31
0.0
  0
LINE
  5
237C
330
1E
100
AcDbEntity
  8
3
100
AcDbLine
 10
-0.1515748031496065
 20
0.0246062992125991
 30
0.0
 11
-0.1663385826771657
 21
0.0285433070866148
 31
0.0
  0
LINE
  5
237D
330
1E
100
AcDbEntity
  8
3
100
AcDbLine
 10
-0.1663385826771657
 20
0.0285433070866148
 30
0.0
 11
-0.1811023622047245
 21
0.0324803149606305
 31
0.0
  0
LINE
  5
237E
330
1E
100
AcDbEntity
  8
3
100
AcDbLine
 10
-0.1811023622047245
 20
0.0324803149606305
 30
0.0
 11
-0.1929133858267718
 21
0.0433070866141741
 31
0.0
  0
LINE
  5
237F
330
1E
100
AcDbEntity
  8
3
100
AcDbLine
 10
-0.1929133858267718
 20
0.0433070866141741
 30
0.0
 11
-0.1968503937007875
 21
0.0580708661417324
 31
0.0
  0
LINE
  5
2380
330
1E
100
AcDbEntity
  8
3
100
AcDbLine
 10
-0.1968503937007875
 20
0.293307086614174
 30
0.0
 11
-0.1929133858267718
 21
0.3080708661417324
 31
0.0
  0
LINE
  5
2381
330
1E
100
AcDbEntity
  8
3
100
AcDbLine
 10
-0.1929133858267718
 20
0.3080708661417324
 30
0.0
 11
-0.1811023622047245
 21
0.3198818897637796
 31
0.0
  0
LINE
  5
2382
330
1E
100
AcDbEntity
  8
3
100
AcDbLine
 10
-0.1811023622047245
 20
0.3198818897637796
 30
0.0
 11
-0.1663385826771657
 21
0.3238188976377954
 31
0.0
  0
LINE
  5
2383
330
1E
100
AcDbEntity
  8
3
100
AcDbLine
 10
-0.1663385826771657
 20
0.3238188976377954
 30
0.0
 11
-0.1515748031496065
 21
0.3277559055118111
 31
0.0
  0
LINE
  5
2384
330
1E
100
AcDbEntity
  8
3
100
AcDbLine
 10
-0.1515748031496065
 20
0.3277559055118111
 30
0.0
 11
-0.1407480314960634
 21
0.3385826771653546
 31
0.0
  0
LINE
  5
2385
330
1E
100
AcDbEntity
  8
3
100
AcDbLine
 10
-0.1407480314960634
 20
0.3385826771653546
 30
0.0
 11
-0.1368110236220472
 21
0.3533464566929139
 31
0.0
  0
LINE
  5
2386
330
1E
100
AcDbEntity
  8
3
100
AcDbLine
 10
-0.1072834645669292
 20
0.3828740157480315
 30
0.0
 11
-0.1003937007874018
 21
0.3858267716535435
 31
0.0
  0
LINE
  5
2387
330
1E
100
AcDbEntity
  8
3
100
AcDbLine
 10
-0.1003937007874018
 20
0.3858267716535435
 30
0.0
 11
-0.0974409448818898
 21
0.3927165354330713
 31
0.0
  0
LINE
  5
31DB
330
1E
100
AcDbEntity
  8
0
 62
     3
100
AcDbLine
 10
1.444881889763779
 20
0.6043307086614176
 30
0.0
 11
1.224409448818897
 21
0.6003937007874019
 31
0.0
  0
LINE
  5
31DD
330
1E
100
AcDbEntity
  8
0
 62
     3
100
AcDbLine
 10
1.239173228346456
 20
0.5620078740157482
 30
0.0
 11
1.239173228346456
 21
0.6200787401574806
 31
0.0
  0
ENDSEC
  0
SECTION
  2
OBJECTS
  0
DICTIONARY
  5
C
330
0
100
AcDbDictionary
  3
ACAD_GROUP
350
D
  3
ACAD_LAYOUT
350
19
  3
ACAD_MLINESTYLE
350
16
  3
ACAD_PLOTSETTINGS
350
18
1001
ACAD
1000
TREAT_AS_HARD
1070
     0
  0
DICTIONARY
  5
31A5
330
1E
100
AcDbDictionary
  3
ACAD_LAYOUTSELFREF
350
3212
1001
ACAD
1000
TREAT_AS_HARD
1070
     1
  0
DICTIONARY
  5
31A7
330
1A
100
AcDbDictionary
  3
ACAD_LAYOUTSELFREF
350
3211
1001
ACAD
1000
TREAT_AS_HARD
1070
     1
  0
DICTIONARY
  5
D
102
{ACAD_REACTORS
330
C
102
}
330
C
100
AcDbDictionary
1001
ACAD
1000
TREAT_AS_HARD
1070
     0
  0
DICTIONARY
  5
19
102
{ACAD_REACTORS
330
C
102
}
330
C
100
AcDbDictionary
1001
ACAD
1000
TREAT_AS_HARD
1070
     0
  0
DICTIONARY
  5
16
102
{ACAD_REACTORS
330
C
102
}
330
C
100
AcDbDictionary
  3
STANDARD
350
17
1001
ACAD
1000
TREAT_AS_HARD
1070
     0
  0
DICTIONARY
  5
18
102
{ACAD_REACTORS
330
C
102
}
330
C
100
AcDbDictionary
1001
ACAD
1000
TREAT_AS_HARD
1070
     0
  0
XRECORD
  5
3212
102
{ACAD_REACTORS
330
31A5
102
}
330
31A5
100
AcDbXrecord
340
1E
  0
XRECORD
  5
3211
102
{ACAD_REACTORS
330
31A7
102
}
330
31A7
100
AcDbXrecord
340
1A
  0
MLINESTYLE
  5
17
102
{ACAD_REACTORS
330
16
102
}
330
16
100
AcDbMlineStyle
  2
STANDARD
 70
     0
  3

 62
   256
 51
90.0
 52
90.0
 71
     2
 49
0.5
 62
   256
  6
BYLAYER
 49
-0.5
 62
   256
  6
BYLAYER
  0
ENDSEC
  0
EOF
