ISO-10303-21;
HEADER;
/* Generated by software containing ST-Developer
 * from STEP Tools, Inc. (www.steptools.com) 
 */

FILE_DESCRIPTION(
/* description */ (''),
/* implementation_level */ '2;1');

FILE_NAME(
/* name */ 'V:\\AUTOCAD\\_tegninger\\Stepfiles - 3D\\MOF\\MOFxxx-8.stp',

/* time_stamp */ '2019-11-27T10:16:44+01:00',
/* author */ ('tvb'),
/* organization */ (''),
/* preprocessor_version */ 'ST-DEVELOPER v18',
/* originating_system */ 'Autodesk Inventor 2020',
/* authorisation */ '');

FILE_SCHEMA (('AUTOMOTIVE_DESIGN { 1 0 10303 214 3 1 1 }'));
ENDSEC;

DATA;
#10=MECHANICAL_DESIGN_GEOMETRIC_PRESENTATION_REPRESENTATION('',(#13),#586);
#11=SHAPE_REPRESENTATION_RELATIONSHIP('SRR','None',#593,#12);
#12=ADVANCED_BREP_SHAPE_REPRESENTATION('',(#14),#585);
#13=STYLED_ITEM('',(#602),#14);
#14=MANIFOLD_SOLID_BREP('Solid1',#301);
#15=CONICAL_SURFACE('',#342,4.9525,0.00351852577841952);
#16=CONICAL_SURFACE('',#355,2.0578077523737,0.0174532925199433);
#17=CONICAL_SURFACE('',#364,3.28096250695347,0.0174532925199428);
#18=CONICAL_SURFACE('',#368,4.15596250695347,1.30899693899575);
#19=TOROIDAL_SURFACE('',#328,4.375,0.5);
#20=TOROIDAL_SURFACE('',#345,2.59134863155785,0.5);
#21=TOROIDAL_SURFACE('',#356,3.80527319570771,0.5);
#22=TOROIDAL_SURFACE('',#371,2.75865136844215,0.5);
#23=LINE('',#500,#30);
#24=LINE('',#519,#31);
#25=LINE('',#531,#32);
#26=LINE('',#550,#33);
#27=LINE('',#571,#34);
#28=LINE('',#575,#35);
#29=LINE('',#582,#36);
#30=VECTOR('',#388,2.);
#31=VECTOR('',#411,4.875);
#32=VECTOR('',#426,4.9525);
#33=VECTOR('',#449,2.0578077523737);
#34=VECTOR('',#472,3.28096250695347);
#35=VECTOR('',#477,4.15596250695347);
#36=VECTOR('',#488,5.);
#37=CYLINDRICAL_SURFACE('',#324,2.);
#38=CYLINDRICAL_SURFACE('',#335,4.875);
#39=CYLINDRICAL_SURFACE('',#373,5.);
#40=FACE_BOUND('',#60,.T.);
#41=FACE_BOUND('',#67,.T.);
#42=FACE_BOUND('',#71,.T.);
#43=FACE_OUTER_BOUND('',#59,.T.);
#44=FACE_OUTER_BOUND('',#61,.T.);
#45=FACE_OUTER_BOUND('',#62,.T.);
#46=FACE_OUTER_BOUND('',#63,.T.);
#47=FACE_OUTER_BOUND('',#64,.T.);
#48=FACE_OUTER_BOUND('',#65,.T.);
#49=FACE_OUTER_BOUND('',#66,.T.);
#50=FACE_OUTER_BOUND('',#68,.T.);
#51=FACE_OUTER_BOUND('',#69,.T.);
#52=FACE_OUTER_BOUND('',#70,.T.);
#53=FACE_OUTER_BOUND('',#72,.T.);
#54=FACE_OUTER_BOUND('',#73,.T.);
#55=FACE_OUTER_BOUND('',#74,.T.);
#56=FACE_OUTER_BOUND('',#75,.T.);
#57=FACE_OUTER_BOUND('',#76,.T.);
#58=FACE_OUTER_BOUND('',#77,.T.);
#59=EDGE_LOOP('',(#192));
#60=EDGE_LOOP('',(#193));
#61=EDGE_LOOP('',(#194,#195,#196,#197,#198));
#62=EDGE_LOOP('',(#199,#200));
#63=EDGE_LOOP('',(#201,#202,#203,#204,#205,#206,#207));
#64=EDGE_LOOP('',(#208,#209,#210,#211,#212,#213,#214));
#65=EDGE_LOOP('',(#215,#216));
#66=EDGE_LOOP('',(#217,#218));
#67=EDGE_LOOP('',(#219,#220));
#68=EDGE_LOOP('',(#221,#222,#223,#224,#225,#226));
#69=EDGE_LOOP('',(#227,#228,#229,#230,#231,#232,#233));
#70=EDGE_LOOP('',(#234,#235));
#71=EDGE_LOOP('',(#236,#237));
#72=EDGE_LOOP('',(#238,#239,#240,#241,#242,#243));
#73=EDGE_LOOP('',(#244,#245,#246,#247,#248,#249,#250,#251));
#74=EDGE_LOOP('',(#252,#253,#254,#255,#256,#257,#258,#259));
#75=EDGE_LOOP('',(#260,#261,#262,#263,#264,#265,#266));
#76=EDGE_LOOP('',(#267,#268,#269,#270,#271,#272,#273));
#77=EDGE_LOOP('',(#274,#275,#276,#277,#278,#279));
#78=CIRCLE('',#322,2.01970961859776);
#79=CIRCLE('',#323,2.);
#80=CIRCLE('',#325,2.);
#81=CIRCLE('',#326,2.);
#82=CIRCLE('',#329,4.875);
#83=CIRCLE('',#330,4.875);
#84=CIRCLE('',#331,0.5);
#85=CIRCLE('',#332,4.375);
#86=CIRCLE('',#333,4.375);
#87=CIRCLE('',#334,4.875);
#88=CIRCLE('',#336,4.875);
#89=CIRCLE('',#337,4.875);
#90=CIRCLE('',#340,4.905);
#91=CIRCLE('',#341,4.905);
#92=CIRCLE('',#343,5.);
#93=CIRCLE('',#344,5.);
#94=CIRCLE('',#346,2.09142478397965);
#95=CIRCLE('',#347,2.09142478397965);
#96=CIRCLE('',#348,0.5);
#97=CIRCLE('',#349,2.59134863155785);
#98=CIRCLE('',#350,2.59134863155785);
#99=CIRCLE('',#351,2.09142478397965);
#100=CIRCLE('',#353,2.75865136844215);
#101=CIRCLE('',#354,2.75865136844215);
#102=CIRCLE('',#357,3.67586367315645);
#103=CIRCLE('',#358,0.5);
#104=CIRCLE('',#359,3.30534934812952);
#105=CIRCLE('',#360,3.30534934812952);
#106=CIRCLE('',#361,3.30534934812952);
#107=CIRCLE('',#362,3.67586367315645);
#108=CIRCLE('',#363,3.67586367315645);
#109=CIRCLE('',#365,3.25857521602035);
#110=CIRCLE('',#366,3.25857521602035);
#111=CIRCLE('',#367,3.25857521602035);
#112=CIRCLE('',#369,5.);
#113=CIRCLE('',#370,5.);
#114=CIRCLE('',#372,0.5);
#115=VERTEX_POINT('',#491);
#116=VERTEX_POINT('',#493);
#117=VERTEX_POINT('',#496);
#118=VERTEX_POINT('',#497);
#119=VERTEX_POINT('',#503);
#120=VERTEX_POINT('',#504);
#121=VERTEX_POINT('',#506);
#122=VERTEX_POINT('',#508);
#123=VERTEX_POINT('',#510);
#124=VERTEX_POINT('',#515);
#125=VERTEX_POINT('',#516);
#126=VERTEX_POINT('',#522);
#127=VERTEX_POINT('',#523);
#128=VERTEX_POINT('',#527);
#129=VERTEX_POINT('',#528);
#130=VERTEX_POINT('',#533);
#131=VERTEX_POINT('',#534);
#132=VERTEX_POINT('',#536);
#133=VERTEX_POINT('',#538);
#134=VERTEX_POINT('',#540);
#135=VERTEX_POINT('',#545);
#136=VERTEX_POINT('',#546);
#137=VERTEX_POINT('',#552);
#138=VERTEX_POINT('',#553);
#139=VERTEX_POINT('',#555);
#140=VERTEX_POINT('',#557);
#141=VERTEX_POINT('',#559);
#142=VERTEX_POINT('',#562);
#143=VERTEX_POINT('',#566);
#144=VERTEX_POINT('',#567);
#145=VERTEX_POINT('',#569);
#146=VERTEX_POINT('',#574);
#147=VERTEX_POINT('',#576);
#148=EDGE_CURVE('',#115,#115,#78,.T.);
#149=EDGE_CURVE('',#116,#116,#79,.T.);
#150=EDGE_CURVE('',#117,#118,#80,.T.);
#151=EDGE_CURVE('',#118,#117,#81,.T.);
#152=EDGE_CURVE('',#118,#116,#23,.T.);
#153=EDGE_CURVE('',#119,#120,#82,.T.);
#154=EDGE_CURVE('',#120,#121,#83,.T.);
#155=EDGE_CURVE('',#121,#122,#84,.T.);
#156=EDGE_CURVE('',#122,#123,#85,.T.);
#157=EDGE_CURVE('',#123,#122,#86,.T.);
#158=EDGE_CURVE('',#121,#119,#87,.T.);
#159=EDGE_CURVE('',#124,#125,#88,.T.);
#160=EDGE_CURVE('',#125,#124,#89,.T.);
#161=EDGE_CURVE('',#125,#120,#24,.T.);
#162=EDGE_CURVE('',#126,#127,#90,.T.);
#163=EDGE_CURVE('',#127,#126,#91,.T.);
#164=EDGE_CURVE('',#128,#129,#92,.T.);
#165=EDGE_CURVE('',#129,#128,#93,.T.);
#166=EDGE_CURVE('',#129,#127,#25,.T.);
#167=EDGE_CURVE('',#130,#131,#94,.T.);
#168=EDGE_CURVE('',#131,#132,#95,.T.);
#169=EDGE_CURVE('',#132,#133,#96,.T.);
#170=EDGE_CURVE('',#133,#134,#97,.T.);
#171=EDGE_CURVE('',#134,#133,#98,.T.);
#172=EDGE_CURVE('',#132,#130,#99,.T.);
#173=EDGE_CURVE('',#135,#136,#100,.T.);
#174=EDGE_CURVE('',#136,#135,#101,.T.);
#175=EDGE_CURVE('',#131,#115,#26,.T.);
#176=EDGE_CURVE('',#137,#138,#102,.T.);
#177=EDGE_CURVE('',#138,#139,#103,.T.);
#178=EDGE_CURVE('',#139,#140,#104,.T.);
#179=EDGE_CURVE('',#140,#141,#105,.T.);
#180=EDGE_CURVE('',#141,#139,#106,.T.);
#181=EDGE_CURVE('',#138,#142,#107,.T.);
#182=EDGE_CURVE('',#142,#137,#108,.T.);
#183=EDGE_CURVE('',#143,#144,#109,.T.);
#184=EDGE_CURVE('',#145,#143,#110,.T.);
#185=EDGE_CURVE('',#145,#141,#27,.T.);
#186=EDGE_CURVE('',#144,#145,#111,.T.);
#187=EDGE_CURVE('',#142,#146,#28,.T.);
#188=EDGE_CURVE('',#146,#147,#112,.T.);
#189=EDGE_CURVE('',#147,#146,#113,.T.);
#190=EDGE_CURVE('',#136,#144,#114,.T.);
#191=EDGE_CURVE('',#146,#129,#29,.T.);
#192=ORIENTED_EDGE('',*,*,#148,.F.);
#193=ORIENTED_EDGE('',*,*,#149,.F.);
#194=ORIENTED_EDGE('',*,*,#150,.F.);
#195=ORIENTED_EDGE('',*,*,#151,.F.);
#196=ORIENTED_EDGE('',*,*,#152,.T.);
#197=ORIENTED_EDGE('',*,*,#149,.T.);
#198=ORIENTED_EDGE('',*,*,#152,.F.);
#199=ORIENTED_EDGE('',*,*,#150,.T.);
#200=ORIENTED_EDGE('',*,*,#151,.T.);
#201=ORIENTED_EDGE('',*,*,#153,.T.);
#202=ORIENTED_EDGE('',*,*,#154,.T.);
#203=ORIENTED_EDGE('',*,*,#155,.T.);
#204=ORIENTED_EDGE('',*,*,#156,.T.);
#205=ORIENTED_EDGE('',*,*,#157,.T.);
#206=ORIENTED_EDGE('',*,*,#155,.F.);
#207=ORIENTED_EDGE('',*,*,#158,.T.);
#208=ORIENTED_EDGE('',*,*,#159,.F.);
#209=ORIENTED_EDGE('',*,*,#160,.F.);
#210=ORIENTED_EDGE('',*,*,#161,.T.);
#211=ORIENTED_EDGE('',*,*,#153,.F.);
#212=ORIENTED_EDGE('',*,*,#158,.F.);
#213=ORIENTED_EDGE('',*,*,#154,.F.);
#214=ORIENTED_EDGE('',*,*,#161,.F.);
#215=ORIENTED_EDGE('',*,*,#157,.F.);
#216=ORIENTED_EDGE('',*,*,#156,.F.);
#217=ORIENTED_EDGE('',*,*,#162,.F.);
#218=ORIENTED_EDGE('',*,*,#163,.F.);
#219=ORIENTED_EDGE('',*,*,#159,.T.);
#220=ORIENTED_EDGE('',*,*,#160,.T.);
#221=ORIENTED_EDGE('',*,*,#164,.F.);
#222=ORIENTED_EDGE('',*,*,#165,.F.);
#223=ORIENTED_EDGE('',*,*,#166,.T.);
#224=ORIENTED_EDGE('',*,*,#163,.T.);
#225=ORIENTED_EDGE('',*,*,#162,.T.);
#226=ORIENTED_EDGE('',*,*,#166,.F.);
#227=ORIENTED_EDGE('',*,*,#167,.T.);
#228=ORIENTED_EDGE('',*,*,#168,.T.);
#229=ORIENTED_EDGE('',*,*,#169,.T.);
#230=ORIENTED_EDGE('',*,*,#170,.T.);
#231=ORIENTED_EDGE('',*,*,#171,.T.);
#232=ORIENTED_EDGE('',*,*,#169,.F.);
#233=ORIENTED_EDGE('',*,*,#172,.T.);
#234=ORIENTED_EDGE('',*,*,#173,.F.);
#235=ORIENTED_EDGE('',*,*,#174,.F.);
#236=ORIENTED_EDGE('',*,*,#171,.F.);
#237=ORIENTED_EDGE('',*,*,#170,.F.);
#238=ORIENTED_EDGE('',*,*,#167,.F.);
#239=ORIENTED_EDGE('',*,*,#172,.F.);
#240=ORIENTED_EDGE('',*,*,#168,.F.);
#241=ORIENTED_EDGE('',*,*,#175,.T.);
#242=ORIENTED_EDGE('',*,*,#148,.T.);
#243=ORIENTED_EDGE('',*,*,#175,.F.);
#244=ORIENTED_EDGE('',*,*,#176,.T.);
#245=ORIENTED_EDGE('',*,*,#177,.T.);
#246=ORIENTED_EDGE('',*,*,#178,.T.);
#247=ORIENTED_EDGE('',*,*,#179,.T.);
#248=ORIENTED_EDGE('',*,*,#180,.T.);
#249=ORIENTED_EDGE('',*,*,#177,.F.);
#250=ORIENTED_EDGE('',*,*,#181,.T.);
#251=ORIENTED_EDGE('',*,*,#182,.T.);
#252=ORIENTED_EDGE('',*,*,#183,.F.);
#253=ORIENTED_EDGE('',*,*,#184,.F.);
#254=ORIENTED_EDGE('',*,*,#185,.T.);
#255=ORIENTED_EDGE('',*,*,#179,.F.);
#256=ORIENTED_EDGE('',*,*,#178,.F.);
#257=ORIENTED_EDGE('',*,*,#180,.F.);
#258=ORIENTED_EDGE('',*,*,#185,.F.);
#259=ORIENTED_EDGE('',*,*,#186,.F.);
#260=ORIENTED_EDGE('',*,*,#176,.F.);
#261=ORIENTED_EDGE('',*,*,#182,.F.);
#262=ORIENTED_EDGE('',*,*,#187,.T.);
#263=ORIENTED_EDGE('',*,*,#188,.T.);
#264=ORIENTED_EDGE('',*,*,#189,.T.);
#265=ORIENTED_EDGE('',*,*,#187,.F.);
#266=ORIENTED_EDGE('',*,*,#181,.F.);
#267=ORIENTED_EDGE('',*,*,#173,.T.);
#268=ORIENTED_EDGE('',*,*,#190,.T.);
#269=ORIENTED_EDGE('',*,*,#186,.T.);
#270=ORIENTED_EDGE('',*,*,#184,.T.);
#271=ORIENTED_EDGE('',*,*,#183,.T.);
#272=ORIENTED_EDGE('',*,*,#190,.F.);
#273=ORIENTED_EDGE('',*,*,#174,.T.);
#274=ORIENTED_EDGE('',*,*,#189,.F.);
#275=ORIENTED_EDGE('',*,*,#188,.F.);
#276=ORIENTED_EDGE('',*,*,#191,.T.);
#277=ORIENTED_EDGE('',*,*,#165,.T.);
#278=ORIENTED_EDGE('',*,*,#164,.T.);
#279=ORIENTED_EDGE('',*,*,#191,.F.);
#280=PLANE('',#321);
#281=PLANE('',#327);
#282=PLANE('',#338);
#283=PLANE('',#339);
#284=PLANE('',#352);
#285=ADVANCED_FACE('',(#43,#40),#280,.T.);
#286=ADVANCED_FACE('',(#44),#37,.T.);
#287=ADVANCED_FACE('',(#45),#281,.F.);
#288=ADVANCED_FACE('',(#46),#19,.T.);
#289=ADVANCED_FACE('',(#47),#38,.T.);
#290=ADVANCED_FACE('',(#48),#282,.T.);
#291=ADVANCED_FACE('',(#49,#41),#283,.T.);
#292=ADVANCED_FACE('',(#50),#15,.T.);
#293=ADVANCED_FACE('',(#51),#20,.T.);
#294=ADVANCED_FACE('',(#52,#42),#284,.T.);
#295=ADVANCED_FACE('',(#53),#16,.F.);
#296=ADVANCED_FACE('',(#54),#21,.F.);
#297=ADVANCED_FACE('',(#55),#17,.T.);
#298=ADVANCED_FACE('',(#56),#18,.T.);
#299=ADVANCED_FACE('',(#57),#22,.T.);
#300=ADVANCED_FACE('',(#58),#39,.T.);
#301=CLOSED_SHELL('',(#285,#286,#287,#288,#289,#290,#291,#292,#293,#294,
#295,#296,#297,#298,#299,#300));
#302=DERIVED_UNIT_ELEMENT(#304,1.);
#303=DERIVED_UNIT_ELEMENT(#588,3.);
#304=(
MASS_UNIT()
NAMED_UNIT(*)
SI_UNIT($,.GRAM.)
);
#305=DERIVED_UNIT((#302,#303));
#306=MEASURE_REPRESENTATION_ITEM('density measure',
POSITIVE_RATIO_MEASURE(1.),#305);
#307=PROPERTY_DEFINITION_REPRESENTATION(#312,#309);
#308=PROPERTY_DEFINITION_REPRESENTATION(#313,#310);
#309=REPRESENTATION('material name',(#311),#585);
#310=REPRESENTATION('density',(#306),#585);
#311=DESCRIPTIVE_REPRESENTATION_ITEM('Generic','Generic');
#312=PROPERTY_DEFINITION('material property','material name',#595);
#313=PROPERTY_DEFINITION('material property','density of part',#595);
#314=DATE_TIME_ROLE('creation_date');
#315=APPLIED_DATE_AND_TIME_ASSIGNMENT(#316,#314,(#595));
#316=DATE_AND_TIME(#317,#318);
#317=CALENDAR_DATE(2019,27,11);
#318=LOCAL_TIME(9,10,35.,#319);
#319=COORDINATED_UNIVERSAL_TIME_OFFSET(0,0,.BEHIND.);
#320=AXIS2_PLACEMENT_3D('placement',#489,#374,#375);
#321=AXIS2_PLACEMENT_3D('',#490,#376,#377);
#322=AXIS2_PLACEMENT_3D('',#492,#378,#379);
#323=AXIS2_PLACEMENT_3D('',#494,#380,#381);
#324=AXIS2_PLACEMENT_3D('',#495,#382,#383);
#325=AXIS2_PLACEMENT_3D('',#498,#384,#385);
#326=AXIS2_PLACEMENT_3D('',#499,#386,#387);
#327=AXIS2_PLACEMENT_3D('',#501,#389,#390);
#328=AXIS2_PLACEMENT_3D('',#502,#391,#392);
#329=AXIS2_PLACEMENT_3D('',#505,#393,#394);
#330=AXIS2_PLACEMENT_3D('',#507,#395,#396);
#331=AXIS2_PLACEMENT_3D('',#509,#397,#398);
#332=AXIS2_PLACEMENT_3D('',#511,#399,#400);
#333=AXIS2_PLACEMENT_3D('',#512,#401,#402);
#334=AXIS2_PLACEMENT_3D('',#513,#403,#404);
#335=AXIS2_PLACEMENT_3D('',#514,#405,#406);
#336=AXIS2_PLACEMENT_3D('',#517,#407,#408);
#337=AXIS2_PLACEMENT_3D('',#518,#409,#410);
#338=AXIS2_PLACEMENT_3D('',#520,#412,#413);
#339=AXIS2_PLACEMENT_3D('',#521,#414,#415);
#340=AXIS2_PLACEMENT_3D('',#524,#416,#417);
#341=AXIS2_PLACEMENT_3D('',#525,#418,#419);
#342=AXIS2_PLACEMENT_3D('',#526,#420,#421);
#343=AXIS2_PLACEMENT_3D('',#529,#422,#423);
#344=AXIS2_PLACEMENT_3D('',#530,#424,#425);
#345=AXIS2_PLACEMENT_3D('',#532,#427,#428);
#346=AXIS2_PLACEMENT_3D('',#535,#429,#430);
#347=AXIS2_PLACEMENT_3D('',#537,#431,#432);
#348=AXIS2_PLACEMENT_3D('',#539,#433,#434);
#349=AXIS2_PLACEMENT_3D('',#541,#435,#436);
#350=AXIS2_PLACEMENT_3D('',#542,#437,#438);
#351=AXIS2_PLACEMENT_3D('',#543,#439,#440);
#352=AXIS2_PLACEMENT_3D('',#544,#441,#442);
#353=AXIS2_PLACEMENT_3D('',#547,#443,#444);
#354=AXIS2_PLACEMENT_3D('',#548,#445,#446);
#355=AXIS2_PLACEMENT_3D('',#549,#447,#448);
#356=AXIS2_PLACEMENT_3D('',#551,#450,#451);
#357=AXIS2_PLACEMENT_3D('',#554,#452,#453);
#358=AXIS2_PLACEMENT_3D('',#556,#454,#455);
#359=AXIS2_PLACEMENT_3D('',#558,#456,#457);
#360=AXIS2_PLACEMENT_3D('',#560,#458,#459);
#361=AXIS2_PLACEMENT_3D('',#561,#460,#461);
#362=AXIS2_PLACEMENT_3D('',#563,#462,#463);
#363=AXIS2_PLACEMENT_3D('',#564,#464,#465);
#364=AXIS2_PLACEMENT_3D('',#565,#466,#467);
#365=AXIS2_PLACEMENT_3D('',#568,#468,#469);
#366=AXIS2_PLACEMENT_3D('',#570,#470,#471);
#367=AXIS2_PLACEMENT_3D('',#572,#473,#474);
#368=AXIS2_PLACEMENT_3D('',#573,#475,#476);
#369=AXIS2_PLACEMENT_3D('',#577,#478,#479);
#370=AXIS2_PLACEMENT_3D('',#578,#480,#481);
#371=AXIS2_PLACEMENT_3D('',#579,#482,#483);
#372=AXIS2_PLACEMENT_3D('',#580,#484,#485);
#373=AXIS2_PLACEMENT_3D('',#581,#486,#487);
#374=DIRECTION('axis',(0.,0.,1.));
#375=DIRECTION('refdir',(1.,0.,0.));
#376=DIRECTION('center_axis',(0.,0.,-1.));
#377=DIRECTION('ref_axis',(-1.,0.,0.));
#378=DIRECTION('center_axis',(0.,0.,1.));
#379=DIRECTION('ref_axis',(0.,1.,0.));
#380=DIRECTION('center_axis',(0.,0.,-1.));
#381=DIRECTION('ref_axis',(1.,0.,0.));
#382=DIRECTION('center_axis',(0.,0.,-1.));
#383=DIRECTION('ref_axis',(1.,0.,0.));
#384=DIRECTION('center_axis',(0.,0.,-1.));
#385=DIRECTION('ref_axis',(1.,0.,0.));
#386=DIRECTION('center_axis',(0.,0.,-1.));
#387=DIRECTION('ref_axis',(1.,0.,0.));
#388=DIRECTION('',(0.,0.,1.));
#389=DIRECTION('center_axis',(0.,0.,1.));
#390=DIRECTION('ref_axis',(1.,0.,0.));
#391=DIRECTION('center_axis',(0.,0.,-1.));
#392=DIRECTION('ref_axis',(-1.,0.,0.));
#393=DIRECTION('center_axis',(0.,0.,1.));
#394=DIRECTION('ref_axis',(6.12323399573677E-17,-1.,0.));
#395=DIRECTION('center_axis',(0.,0.,1.));
#396=DIRECTION('ref_axis',(6.12323399573677E-17,-1.,0.));
#397=DIRECTION('center_axis',(-2.27738056333365E-16,-1.,0.));
#398=DIRECTION('ref_axis',(1.,-2.27738056333365E-16,0.));
#399=DIRECTION('center_axis',(0.,0.,-1.));
#400=DIRECTION('ref_axis',(6.12323399573677E-17,-1.,0.));
#401=DIRECTION('center_axis',(0.,0.,-1.));
#402=DIRECTION('ref_axis',(6.12323399573677E-17,-1.,0.));
#403=DIRECTION('center_axis',(0.,0.,1.));
#404=DIRECTION('ref_axis',(6.12323399573677E-17,-1.,0.));
#405=DIRECTION('center_axis',(0.,0.,-1.));
#406=DIRECTION('ref_axis',(0.,1.,0.));
#407=DIRECTION('center_axis',(0.,0.,-1.));
#408=DIRECTION('ref_axis',(1.,0.,0.));
#409=DIRECTION('center_axis',(0.,0.,-1.));
#410=DIRECTION('ref_axis',(1.,0.,0.));
#411=DIRECTION('',(0.,0.,1.));
#412=DIRECTION('center_axis',(0.,0.,1.));
#413=DIRECTION('ref_axis',(1.,0.,0.));
#414=DIRECTION('center_axis',(0.,0.,1.));
#415=DIRECTION('ref_axis',(1.,0.,0.));
#416=DIRECTION('center_axis',(0.,0.,-1.));
#417=DIRECTION('ref_axis',(1.,0.,0.));
#418=DIRECTION('center_axis',(0.,0.,-1.));
#419=DIRECTION('ref_axis',(1.,0.,0.));
#420=DIRECTION('center_axis',(0.,0.,-1.));
#421=DIRECTION('ref_axis',(0.,1.,0.));
#422=DIRECTION('center_axis',(0.,0.,-1.));
#423=DIRECTION('ref_axis',(1.,0.,0.));
#424=DIRECTION('center_axis',(0.,0.,-1.));
#425=DIRECTION('ref_axis',(1.,0.,0.));
#426=DIRECTION('',(4.30894244144452E-19,0.00351851851851863,0.999993809994559));
#427=DIRECTION('center_axis',(0.,0.,-1.));
#428=DIRECTION('ref_axis',(-1.,0.,0.));
#429=DIRECTION('center_axis',(0.,0.,1.));
#430=DIRECTION('ref_axis',(-3.06161699786838E-17,-1.,0.));
#431=DIRECTION('center_axis',(0.,0.,1.));
#432=DIRECTION('ref_axis',(-3.06161699786838E-17,-1.,0.));
#433=DIRECTION('center_axis',(0.,-1.,0.));
#434=DIRECTION('ref_axis',(1.,0.,0.));
#435=DIRECTION('center_axis',(0.,0.,-1.));
#436=DIRECTION('ref_axis',(6.12323399573677E-17,-1.,0.));
#437=DIRECTION('center_axis',(0.,0.,-1.));
#438=DIRECTION('ref_axis',(6.12323399573677E-17,-1.,0.));
#439=DIRECTION('center_axis',(0.,0.,1.));
#440=DIRECTION('ref_axis',(-3.06161699786838E-17,-1.,0.));
#441=DIRECTION('center_axis',(0.,0.,-1.));
#442=DIRECTION('ref_axis',(-1.,0.,0.));
#443=DIRECTION('center_axis',(0.,0.,1.));
#444=DIRECTION('ref_axis',(6.12323399573676E-17,-1.,0.));
#445=DIRECTION('center_axis',(0.,0.,1.));
#446=DIRECTION('ref_axis',(6.12323399573676E-17,-1.,0.));
#447=DIRECTION('center_axis',(0.,0.,-1.));
#448=DIRECTION('ref_axis',(0.,1.,0.));
#449=DIRECTION('',(2.13730336808379E-18,0.0174524064372835,0.999847695156391));
#450=DIRECTION('center_axis',(0.,0.,-1.));
#451=DIRECTION('ref_axis',(-1.,0.,0.));
#452=DIRECTION('center_axis',(0.,0.,-1.));
#453=DIRECTION('ref_axis',(-3.06161699786838E-17,-1.,0.));
#454=DIRECTION('center_axis',(0.,-1.,0.));
#455=DIRECTION('ref_axis',(1.,0.,0.));
#456=DIRECTION('center_axis',(0.,0.,1.));
#457=DIRECTION('ref_axis',(-3.06161699786838E-17,-1.,0.));
#458=DIRECTION('center_axis',(0.,0.,1.));
#459=DIRECTION('ref_axis',(-3.06161699786838E-17,-1.,0.));
#460=DIRECTION('center_axis',(0.,0.,1.));
#461=DIRECTION('ref_axis',(-3.06161699786838E-17,-1.,0.));
#462=DIRECTION('center_axis',(0.,0.,-1.));
#463=DIRECTION('ref_axis',(-3.06161699786838E-17,-1.,0.));
#464=DIRECTION('center_axis',(0.,0.,-1.));
#465=DIRECTION('ref_axis',(-3.06161699786838E-17,-1.,0.));
#466=DIRECTION('center_axis',(0.,0.,1.));
#467=DIRECTION('ref_axis',(0.,1.,0.));
#468=DIRECTION('center_axis',(0.,0.,-1.));
#469=DIRECTION('ref_axis',(-3.06161699786838E-17,-1.,0.));
#470=DIRECTION('center_axis',(0.,0.,-1.));
#471=DIRECTION('ref_axis',(-3.06161699786838E-17,-1.,0.));
#472=DIRECTION('',(-2.13730336808373E-18,-0.017452406437283,0.999847695156391));
#473=DIRECTION('center_axis',(0.,0.,-1.));
#474=DIRECTION('ref_axis',(-3.06161699786838E-17,-1.,0.));
#475=DIRECTION('center_axis',(0.,0.,1.));
#476=DIRECTION('ref_axis',(0.,1.,0.));
#477=DIRECTION('',(-1.18291797137867E-16,-0.965925826289068,0.258819045102521));
#478=DIRECTION('center_axis',(0.,0.,-1.));
#479=DIRECTION('ref_axis',(1.,0.,0.));
#480=DIRECTION('center_axis',(0.,0.,-1.));
#481=DIRECTION('ref_axis',(1.,0.,0.));
#482=DIRECTION('center_axis',(0.,0.,-1.));
#483=DIRECTION('ref_axis',(-1.,0.,0.));
#484=DIRECTION('center_axis',(0.,-1.,0.));
#485=DIRECTION('ref_axis',(1.,0.,0.));
#486=DIRECTION('center_axis',(0.,0.,-1.));
#487=DIRECTION('ref_axis',(0.,1.,0.));
#488=DIRECTION('',(0.,0.,1.));
#489=CARTESIAN_POINT('',(0.,0.,0.));
#490=CARTESIAN_POINT('Origin',(-9.61653670511466,5.99161189847849,-0.150167130146901));
#491=CARTESIAN_POINT('',(-9.61653670511466,3.97190227988072,-0.150167130146901));
#492=CARTESIAN_POINT('Origin',(-9.61653670511466,5.99161189847849,-0.150167130146901));
#493=CARTESIAN_POINT('',(-11.6165367051147,5.99161189847849,-0.150167130146901));
#494=CARTESIAN_POINT('Origin',(-9.61653670511466,5.99161189847849,-0.150167130146901));
#495=CARTESIAN_POINT('Origin',(-9.61653670511466,5.99161189847849,0.249999999999999));
#496=CARTESIAN_POINT('',(-7.61653670511466,5.99161189847849,-19.75));
#497=CARTESIAN_POINT('',(-11.6165367051147,5.99161189847849,-19.75));
#498=CARTESIAN_POINT('Origin',(-9.61653670511466,5.99161189847849,-19.75));
#499=CARTESIAN_POINT('Origin',(-9.61653670511466,5.99161189847849,-19.75));
#500=CARTESIAN_POINT('',(-11.6165367051147,5.99161189847849,0.249999999999999));
#501=CARTESIAN_POINT('Origin',(-9.61653670511466,5.99161189847849,-19.75));
#502=CARTESIAN_POINT('Origin',(-9.61653670511466,5.99161189847849,33.7498328698531));
#503=CARTESIAN_POINT('',(-9.61653670511466,10.8666118984785,33.7498328698531));
#504=CARTESIAN_POINT('',(-9.61653670511466,1.11661189847849,33.7498328698531));
#505=CARTESIAN_POINT('Origin',(-9.61653670511466,5.99161189847849,33.7498328698531));
#506=CARTESIAN_POINT('',(-4.74153670511466,5.99161189847849,33.7498328698531));
#507=CARTESIAN_POINT('Origin',(-9.61653670511466,5.99161189847849,33.7498328698531));
#508=CARTESIAN_POINT('',(-5.24153670511466,5.99161189847849,34.2498328698531));
#509=CARTESIAN_POINT('Origin',(-5.24153670511466,5.99161189847849,33.7498328698531));
#510=CARTESIAN_POINT('',(-9.61653670511466,10.3666118984785,34.2498328698531));
#511=CARTESIAN_POINT('Origin',(-9.61653670511466,5.99161189847849,34.2498328698531));
#512=CARTESIAN_POINT('Origin',(-9.61653670511466,5.99161189847849,34.2498328698531));
#513=CARTESIAN_POINT('Origin',(-9.61653670511466,5.99161189847849,33.7498328698531));
#514=CARTESIAN_POINT('Origin',(-9.61653670511466,5.99161189847849,30.7498328698531));
#515=CARTESIAN_POINT('',(-9.61653670511466,10.8666118984785,27.2498328698531));
#516=CARTESIAN_POINT('',(-9.61653670511466,1.11661189847849,27.2498328698531));
#517=CARTESIAN_POINT('Origin',(-9.61653670511466,5.99161189847849,27.2498328698531));
#518=CARTESIAN_POINT('Origin',(-9.61653670511466,5.99161189847849,27.2498328698531));
#519=CARTESIAN_POINT('',(-9.61653670511466,1.11661189847849,30.7498328698531));
#520=CARTESIAN_POINT('Origin',(-9.61653670511466,10.8666118984785,34.2498328698531));
#521=CARTESIAN_POINT('Origin',(-9.61653670511466,10.8966118984785,27.2498328698531));
#522=CARTESIAN_POINT('',(-9.61653670511466,10.8966118984785,27.2498328698531));
#523=CARTESIAN_POINT('',(-9.61653670511466,1.08661189847849,27.2498328698531));
#524=CARTESIAN_POINT('Origin',(-9.61653670511466,5.99161189847849,27.2498328698531));
#525=CARTESIAN_POINT('Origin',(-9.61653670511466,5.99161189847849,27.2498328698531));
#526=CARTESIAN_POINT('Origin',(-9.61653670511466,5.99161189847849,13.7499164349265));
#527=CARTESIAN_POINT('',(-9.61653670511466,10.9916118984785,0.25));
#528=CARTESIAN_POINT('',(-9.61653670511466,0.991611898478485,0.250000000000004));
#529=CARTESIAN_POINT('Origin',(-9.61653670511466,5.99161189847849,0.25));
#530=CARTESIAN_POINT('Origin',(-9.61653670511466,5.99161189847849,0.25));
#531=CARTESIAN_POINT('',(-9.61653670511466,1.03911189847849,13.7499164349265));
#532=CARTESIAN_POINT('Origin',(-9.61653670511466,5.99161189847849,-4.25));
#533=CARTESIAN_POINT('',(-9.61653670511466,8.08303668245814,-4.25872620321864));
#534=CARTESIAN_POINT('',(-9.61653670511466,3.90018711449884,-4.25872620321864));
#535=CARTESIAN_POINT('Origin',(-9.61653670511466,5.99161189847849,-4.25872620321864));
#536=CARTESIAN_POINT('',(-7.52511192113501,5.99161189847849,-4.25872620321864));
#537=CARTESIAN_POINT('Origin',(-9.61653670511466,5.99161189847849,-4.25872620321864));
#538=CARTESIAN_POINT('',(-7.02518807355681,5.99161189847849,-4.75));
#539=CARTESIAN_POINT('Origin',(-7.02518807355681,5.99161189847849,-4.25));
#540=CARTESIAN_POINT('',(-9.61653670511466,8.58296053003633,-4.75));
#541=CARTESIAN_POINT('Origin',(-9.61653670511466,5.99161189847849,-4.75));
#542=CARTESIAN_POINT('Origin',(-9.61653670511466,5.99161189847849,-4.75));
#543=CARTESIAN_POINT('Origin',(-9.61653670511466,5.99161189847849,-4.25872620321864));
#544=CARTESIAN_POINT('Origin',(-9.61653670511466,8.09161189847849,-4.75));
#545=CARTESIAN_POINT('',(-9.61653670511466,8.75026326692064,-4.75));
#546=CARTESIAN_POINT('',(-6.8578853366725,5.99161189847849,-4.75));
#547=CARTESIAN_POINT('Origin',(-9.61653670511466,5.99161189847849,-4.75));
#548=CARTESIAN_POINT('Origin',(-9.61653670511466,5.99161189847849,-4.75));
#549=CARTESIAN_POINT('Origin',(-9.61653670511466,5.99161189847849,-2.3328077523737));
#550=CARTESIAN_POINT('',(-9.61653670511466,3.93380414610479,-2.3328077523737));
#551=CARTESIAN_POINT('Origin',(-9.61653670511466,5.99161189847849,-1.58776417259098));
#552=CARTESIAN_POINT('',(-9.61653670511466,9.66747557163494,-1.10480125944644));
#553=CARTESIAN_POINT('',(-5.94067303195821,5.99161189847849,-1.10480125944644));
#554=CARTESIAN_POINT('Origin',(-9.61653670511466,5.99161189847849,-1.10480125944644));
#555=CARTESIAN_POINT('',(-6.31118735698514,5.99161189847849,-1.57903796937233));
#556=CARTESIAN_POINT('Origin',(-5.81126350940695,5.99161189847849,-1.58776417259098));
#557=CARTESIAN_POINT('',(-9.61653670511466,9.296961246608,-1.57903796937233));
#558=CARTESIAN_POINT('Origin',(-9.61653670511466,5.99161189847849,-1.57903796937233));
#559=CARTESIAN_POINT('',(-9.61653670511466,2.68626255034897,-1.57903796937233));
#560=CARTESIAN_POINT('Origin',(-9.61653670511466,5.99161189847849,-1.57903796937233));
#561=CARTESIAN_POINT('Origin',(-9.61653670511466,5.99161189847849,-1.57903796937233));
#562=CARTESIAN_POINT('',(-9.61653670511466,2.31574822532204,-1.10480125944644));
#563=CARTESIAN_POINT('Origin',(-9.61653670511466,5.99161189847849,-1.10480125944644));
#564=CARTESIAN_POINT('Origin',(-9.61653670511466,5.99161189847849,-1.10480125944644));
#565=CARTESIAN_POINT('Origin',(-9.61653670511466,5.99161189847849,-2.97615916464341));
#566=CARTESIAN_POINT('',(-9.61653670511466,9.25018711449884,-4.25872620321864));
#567=CARTESIAN_POINT('',(-6.35796148909431,5.99161189847849,-4.25872620321864));
#568=CARTESIAN_POINT('Origin',(-9.61653670511466,5.99161189847849,-4.25872620321864));
#569=CARTESIAN_POINT('',(-9.61653670511466,2.73303668245814,-4.25872620321864));
#570=CARTESIAN_POINT('Origin',(-9.61653670511466,5.99161189847849,-4.25872620321864));
#571=CARTESIAN_POINT('',(-9.61653670511466,2.71064939152502,-2.97615916464341));
#572=CARTESIAN_POINT('Origin',(-9.61653670511466,5.99161189847849,-4.25872620321864));
#573=CARTESIAN_POINT('Origin',(-9.61653670511466,5.99161189847849,-0.976159164643406));
#574=CARTESIAN_POINT('',(-9.61653670511466,0.991611898478486,-0.749999999999999));
#575=CARTESIAN_POINT('',(-9.61653670511466,1.83564939152502,-0.976159164643406));
#576=CARTESIAN_POINT('',(-9.61653670511466,10.9916118984785,-0.75));
#577=CARTESIAN_POINT('Origin',(-9.61653670511466,5.99161189847849,-0.75));
#578=CARTESIAN_POINT('Origin',(-9.61653670511466,5.99161189847849,-0.75));
#579=CARTESIAN_POINT('Origin',(-9.61653670511466,5.99161189847849,-4.25));
#580=CARTESIAN_POINT('Origin',(-6.8578853366725,5.99161189847849,-4.25));
#581=CARTESIAN_POINT('Origin',(-9.61653670511466,5.99161189847849,-0.25));
#582=CARTESIAN_POINT('',(-9.61653670511466,0.991611898478488,-0.25));
#583=UNCERTAINTY_MEASURE_WITH_UNIT(LENGTH_MEASURE(0.01),#587,
'DISTANCE_ACCURACY_VALUE',
'Maximum model space distance between geometric entities at asserted c
onnectivities');
#584=UNCERTAINTY_MEASURE_WITH_UNIT(LENGTH_MEASURE(0.01),#587,
'DISTANCE_ACCURACY_VALUE',
'Maximum model space distance between geometric entities at asserted c
onnectivities');
#585=(
GEOMETRIC_REPRESENTATION_CONTEXT(3)
GLOBAL_UNCERTAINTY_ASSIGNED_CONTEXT((#583))
GLOBAL_UNIT_ASSIGNED_CONTEXT((#587,#589,#590))
REPRESENTATION_CONTEXT('','3D')
);
#586=(
GEOMETRIC_REPRESENTATION_CONTEXT(3)
GLOBAL_UNCERTAINTY_ASSIGNED_CONTEXT((#584))
GLOBAL_UNIT_ASSIGNED_CONTEXT((#587,#589,#590))
REPRESENTATION_CONTEXT('','3D')
);
#587=(
LENGTH_UNIT()
NAMED_UNIT(*)
SI_UNIT(.MILLI.,.METRE.)
);
#588=(
LENGTH_UNIT()
NAMED_UNIT(*)
SI_UNIT(.CENTI.,.METRE.)
);
#589=(
NAMED_UNIT(*)
PLANE_ANGLE_UNIT()
SI_UNIT($,.RADIAN.)
);
#590=(
NAMED_UNIT(*)
SI_UNIT($,.STERADIAN.)
SOLID_ANGLE_UNIT()
);
#591=SHAPE_DEFINITION_REPRESENTATION(#592,#593);
#592=PRODUCT_DEFINITION_SHAPE('',$,#595);
#593=SHAPE_REPRESENTATION('',(#320),#585);
#594=PRODUCT_DEFINITION_CONTEXT('part definition',#599,'design');
#595=PRODUCT_DEFINITION('MOFxxx-8','MOFxxx-8',#596,#594);
#596=PRODUCT_DEFINITION_FORMATION('',$,#601);
#597=PRODUCT_RELATED_PRODUCT_CATEGORY('MOFxxx-8','MOFxxx-8',(#601));
#598=APPLICATION_PROTOCOL_DEFINITION('international standard',
'automotive_design',2009,#599);
#599=APPLICATION_CONTEXT(
'Core Data for Automotive Mechanical Design Process');
#600=PRODUCT_CONTEXT('part definition',#599,'mechanical');
#601=PRODUCT('MOFxxx-8','MOFxxx-8',$,(#600));
#602=PRESENTATION_STYLE_ASSIGNMENT((#603));
#603=SURFACE_STYLE_USAGE(.BOTH.,#606);
#604=SURFACE_STYLE_RENDERING_WITH_PROPERTIES($,#610,(#605));
#605=SURFACE_STYLE_TRANSPARENT(0.);
#606=SURFACE_SIDE_STYLE('',(#607,#604));
#607=SURFACE_STYLE_FILL_AREA(#608);
#608=FILL_AREA_STYLE('',(#609));
#609=FILL_AREA_STYLE_COLOUR('',#610);
#610=COLOUR_RGB('',0.749019607843137,0.749019607843137,0.749019607843137);
ENDSEC;
END-ISO-10303-21;
