ISO-10303-21;
HEADER;
/* Generated by software containing ST-Developer
 * from STEP Tools, Inc. (www.steptools.com) 
 */

FILE_DESCRIPTION(
/* description */ (''),
/* implementation_level */ '2;1');

FILE_NAME(
/* name */ 'V:\\AUTOCAD\\_tegninger\\Stepfiles - 3D\\VH1_2\\VH1.stp',
/* time_stamp */ '2020-01-08T10:48:32+01:00',
/* author */ ('tvb'),
/* organization */ (''),
/* preprocessor_version */ 'ST-DEVELOPER v18',
/* originating_system */ 'Autodesk Inventor 2020',
/* authorisation */ '');

FILE_SCHEMA (('AUTOMOTIVE_DESIGN { 1 0 10303 214 3 1 1 }'));
ENDSEC;

DATA;
#10=MECHANICAL_DESIGN_GEOMETRIC_PRESENTATION_REPRESENTATION('',(#15,#16,
#17,#18,#19,#20,#21,#22),#329);
#11=SHAPE_REPRESENTATION_RELATIONSHIP('SRR','None',#336,#12);
#12=ADVANCED_BREP_SHAPE_REPRESENTATION('',(#13),#328);
#13=MANIFOLD_SOLID_BREP('Solid1',#173);
#14=CONICAL_SURFACE('',#214,7.125,0.358770670270573);
#15=STYLED_ITEM('',(#346),#166);
#16=STYLED_ITEM('',(#346),#167);
#17=STYLED_ITEM('',(#346),#168);
#18=STYLED_ITEM('',(#346),#169);
#19=STYLED_ITEM('',(#346),#170);
#20=STYLED_ITEM('',(#347),#171);
#21=STYLED_ITEM('',(#347),#172);
#22=STYLED_ITEM('',(#345),#13);
#23=LINE('',#292,#28);
#24=LINE('',#305,#29);
#25=LINE('',#313,#30);
#26=LINE('',#318,#31);
#27=LINE('',#321,#32);
#28=VECTOR('',#235,4.);
#29=VECTOR('',#252,9.);
#30=VECTOR('',#261,7.5);
#31=VECTOR('',#268,7.125);
#32=VECTOR('',#271,3.);
#33=CYLINDRICAL_SURFACE('',#197,4.);
#34=CYLINDRICAL_SURFACE('',#205,9.);
#35=CYLINDRICAL_SURFACE('',#211,7.5);
#36=CYLINDRICAL_SURFACE('',#215,3.);
#37=FACE_BOUND('',#51,.T.);
#38=FACE_BOUND('',#55,.T.);
#39=FACE_BOUND('',#58,.T.);
#40=FACE_OUTER_BOUND('',#50,.T.);
#41=FACE_OUTER_BOUND('',#52,.T.);
#42=FACE_OUTER_BOUND('',#53,.T.);
#43=FACE_OUTER_BOUND('',#54,.T.);
#44=FACE_OUTER_BOUND('',#56,.T.);
#45=FACE_OUTER_BOUND('',#57,.T.);
#46=FACE_OUTER_BOUND('',#59,.T.);
#47=FACE_OUTER_BOUND('',#60,.T.);
#48=FACE_OUTER_BOUND('',#61,.T.);
#49=FACE_OUTER_BOUND('',#62,.T.);
#50=EDGE_LOOP('',(#116,#117));
#51=EDGE_LOOP('',(#118));
#52=EDGE_LOOP('',(#119,#120,#121,#122,#123));
#53=EDGE_LOOP('',(#124,#125));
#54=EDGE_LOOP('',(#126,#127));
#55=EDGE_LOOP('',(#128));
#56=EDGE_LOOP('',(#129,#130,#131,#132,#133,#134));
#57=EDGE_LOOP('',(#135,#136));
#58=EDGE_LOOP('',(#137,#138));
#59=EDGE_LOOP('',(#139,#140,#141,#142,#143,#144));
#60=EDGE_LOOP('',(#145,#146,#147,#148,#149,#150));
#61=EDGE_LOOP('',(#151,#152,#153,#154,#155));
#62=EDGE_LOOP('',(#156,#157));
#63=CIRCLE('',#194,6.75);
#64=CIRCLE('',#195,6.75);
#65=CIRCLE('',#196,3.);
#66=CIRCLE('',#198,4.);
#67=CIRCLE('',#199,4.);
#68=CIRCLE('',#200,4.);
#69=CIRCLE('',#203,9.);
#70=CIRCLE('',#204,9.);
#71=CIRCLE('',#206,9.00000000000001);
#72=CIRCLE('',#207,9.00000000000001);
#73=CIRCLE('',#209,7.5);
#74=CIRCLE('',#210,7.5);
#75=CIRCLE('',#212,7.5);
#76=CIRCLE('',#213,7.5);
#77=CIRCLE('',#216,3.);
#78=CIRCLE('',#217,3.);
#79=VERTEX_POINT('',#280);
#80=VERTEX_POINT('',#281);
#81=VERTEX_POINT('',#284);
#82=VERTEX_POINT('',#287);
#83=VERTEX_POINT('',#288);
#84=VERTEX_POINT('',#291);
#85=VERTEX_POINT('',#296);
#86=VERTEX_POINT('',#297);
#87=VERTEX_POINT('',#301);
#88=VERTEX_POINT('',#302);
#89=VERTEX_POINT('',#307);
#90=VERTEX_POINT('',#308);
#91=VERTEX_POINT('',#312);
#92=VERTEX_POINT('',#314);
#93=VERTEX_POINT('',#320);
#94=VERTEX_POINT('',#322);
#95=EDGE_CURVE('',#79,#80,#63,.T.);
#96=EDGE_CURVE('',#80,#79,#64,.T.);
#97=EDGE_CURVE('',#81,#81,#65,.T.);
#98=EDGE_CURVE('',#82,#83,#66,.T.);
#99=EDGE_CURVE('',#83,#82,#67,.T.);
#100=EDGE_CURVE('',#83,#84,#23,.T.);
#101=EDGE_CURVE('',#84,#84,#68,.T.);
#102=EDGE_CURVE('',#85,#86,#69,.T.);
#103=EDGE_CURVE('',#86,#85,#70,.T.);
#104=EDGE_CURVE('',#87,#88,#71,.T.);
#105=EDGE_CURVE('',#88,#87,#72,.T.);
#106=EDGE_CURVE('',#88,#86,#24,.T.);
#107=EDGE_CURVE('',#89,#90,#73,.T.);
#108=EDGE_CURVE('',#90,#89,#74,.T.);
#109=EDGE_CURVE('',#90,#91,#25,.T.);
#110=EDGE_CURVE('',#92,#91,#75,.T.);
#111=EDGE_CURVE('',#91,#92,#76,.T.);
#112=EDGE_CURVE('',#91,#80,#26,.T.);
#113=EDGE_CURVE('',#81,#93,#27,.T.);
#114=EDGE_CURVE('',#93,#94,#77,.T.);
#115=EDGE_CURVE('',#94,#93,#78,.T.);
#116=ORIENTED_EDGE('',*,*,#95,.T.);
#117=ORIENTED_EDGE('',*,*,#96,.T.);
#118=ORIENTED_EDGE('',*,*,#97,.F.);
#119=ORIENTED_EDGE('',*,*,#98,.F.);
#120=ORIENTED_EDGE('',*,*,#99,.F.);
#121=ORIENTED_EDGE('',*,*,#100,.T.);
#122=ORIENTED_EDGE('',*,*,#101,.F.);
#123=ORIENTED_EDGE('',*,*,#100,.F.);
#124=ORIENTED_EDGE('',*,*,#98,.T.);
#125=ORIENTED_EDGE('',*,*,#99,.T.);
#126=ORIENTED_EDGE('',*,*,#102,.F.);
#127=ORIENTED_EDGE('',*,*,#103,.F.);
#128=ORIENTED_EDGE('',*,*,#101,.T.);
#129=ORIENTED_EDGE('',*,*,#104,.F.);
#130=ORIENTED_EDGE('',*,*,#105,.F.);
#131=ORIENTED_EDGE('',*,*,#106,.T.);
#132=ORIENTED_EDGE('',*,*,#103,.T.);
#133=ORIENTED_EDGE('',*,*,#102,.T.);
#134=ORIENTED_EDGE('',*,*,#106,.F.);
#135=ORIENTED_EDGE('',*,*,#104,.T.);
#136=ORIENTED_EDGE('',*,*,#105,.T.);
#137=ORIENTED_EDGE('',*,*,#107,.F.);
#138=ORIENTED_EDGE('',*,*,#108,.F.);
#139=ORIENTED_EDGE('',*,*,#107,.T.);
#140=ORIENTED_EDGE('',*,*,#109,.T.);
#141=ORIENTED_EDGE('',*,*,#110,.F.);
#142=ORIENTED_EDGE('',*,*,#111,.F.);
#143=ORIENTED_EDGE('',*,*,#109,.F.);
#144=ORIENTED_EDGE('',*,*,#108,.T.);
#145=ORIENTED_EDGE('',*,*,#110,.T.);
#146=ORIENTED_EDGE('',*,*,#112,.T.);
#147=ORIENTED_EDGE('',*,*,#95,.F.);
#148=ORIENTED_EDGE('',*,*,#96,.F.);
#149=ORIENTED_EDGE('',*,*,#112,.F.);
#150=ORIENTED_EDGE('',*,*,#111,.T.);
#151=ORIENTED_EDGE('',*,*,#97,.T.);
#152=ORIENTED_EDGE('',*,*,#113,.T.);
#153=ORIENTED_EDGE('',*,*,#114,.T.);
#154=ORIENTED_EDGE('',*,*,#115,.T.);
#155=ORIENTED_EDGE('',*,*,#113,.F.);
#156=ORIENTED_EDGE('',*,*,#115,.F.);
#157=ORIENTED_EDGE('',*,*,#114,.F.);
#158=PLANE('',#193);
#159=PLANE('',#201);
#160=PLANE('',#202);
#161=PLANE('',#208);
#162=PLANE('',#218);
#163=ADVANCED_FACE('',(#40,#37),#158,.T.);
#164=ADVANCED_FACE('',(#41),#33,.T.);
#165=ADVANCED_FACE('',(#42),#159,.F.);
#166=ADVANCED_FACE('',(#43,#38),#160,.T.);
#167=ADVANCED_FACE('',(#44),#34,.T.);
#168=ADVANCED_FACE('',(#45,#39),#161,.T.);
#169=ADVANCED_FACE('',(#46),#35,.F.);
#170=ADVANCED_FACE('',(#47),#14,.F.);
#171=ADVANCED_FACE('',(#48),#36,.T.);
#172=ADVANCED_FACE('',(#49),#162,.T.);
#173=CLOSED_SHELL('',(#163,#164,#165,#166,#167,#168,#169,#170,#171,#172));
#174=DERIVED_UNIT_ELEMENT(#176,1.);
#175=DERIVED_UNIT_ELEMENT(#331,3.);
#176=(
MASS_UNIT()
NAMED_UNIT(*)
SI_UNIT($,.GRAM.)
);
#177=DERIVED_UNIT((#174,#175));
#178=MEASURE_REPRESENTATION_ITEM('density measure',
POSITIVE_RATIO_MEASURE(1.),#177);
#179=PROPERTY_DEFINITION_REPRESENTATION(#184,#181);
#180=PROPERTY_DEFINITION_REPRESENTATION(#185,#182);
#181=REPRESENTATION('material name',(#183),#328);
#182=REPRESENTATION('density',(#178),#328);
#183=DESCRIPTIVE_REPRESENTATION_ITEM('Generic','Generic');
#184=PROPERTY_DEFINITION('material property','material name',#338);
#185=PROPERTY_DEFINITION('material property','density of part',#338);
#186=DATE_TIME_ROLE('creation_date');
#187=APPLIED_DATE_AND_TIME_ASSIGNMENT(#188,#186,(#338));
#188=DATE_AND_TIME(#189,#190);
#189=CALENDAR_DATE(2020,8,1);
#190=LOCAL_TIME(9,46,8.,#191);
#191=COORDINATED_UNIVERSAL_TIME_OFFSET(0,0,.BEHIND.);
#192=AXIS2_PLACEMENT_3D('placement',#278,#219,#220);
#193=AXIS2_PLACEMENT_3D('',#279,#221,#222);
#194=AXIS2_PLACEMENT_3D('',#282,#223,#224);
#195=AXIS2_PLACEMENT_3D('',#283,#225,#226);
#196=AXIS2_PLACEMENT_3D('',#285,#227,#228);
#197=AXIS2_PLACEMENT_3D('',#286,#229,#230);
#198=AXIS2_PLACEMENT_3D('',#289,#231,#232);
#199=AXIS2_PLACEMENT_3D('',#290,#233,#234);
#200=AXIS2_PLACEMENT_3D('',#293,#236,#237);
#201=AXIS2_PLACEMENT_3D('',#294,#238,#239);
#202=AXIS2_PLACEMENT_3D('',#295,#240,#241);
#203=AXIS2_PLACEMENT_3D('',#298,#242,#243);
#204=AXIS2_PLACEMENT_3D('',#299,#244,#245);
#205=AXIS2_PLACEMENT_3D('',#300,#246,#247);
#206=AXIS2_PLACEMENT_3D('',#303,#248,#249);
#207=AXIS2_PLACEMENT_3D('',#304,#250,#251);
#208=AXIS2_PLACEMENT_3D('',#306,#253,#254);
#209=AXIS2_PLACEMENT_3D('',#309,#255,#256);
#210=AXIS2_PLACEMENT_3D('',#310,#257,#258);
#211=AXIS2_PLACEMENT_3D('',#311,#259,#260);
#212=AXIS2_PLACEMENT_3D('',#315,#262,#263);
#213=AXIS2_PLACEMENT_3D('',#316,#264,#265);
#214=AXIS2_PLACEMENT_3D('',#317,#266,#267);
#215=AXIS2_PLACEMENT_3D('',#319,#269,#270);
#216=AXIS2_PLACEMENT_3D('',#323,#272,#273);
#217=AXIS2_PLACEMENT_3D('',#324,#274,#275);
#218=AXIS2_PLACEMENT_3D('',#325,#276,#277);
#219=DIRECTION('axis',(0.,0.,1.));
#220=DIRECTION('refdir',(1.,0.,0.));
#221=DIRECTION('center_axis',(0.,0.,-1.));
#222=DIRECTION('ref_axis',(-1.,0.,0.));
#223=DIRECTION('center_axis',(0.,0.,-1.));
#224=DIRECTION('ref_axis',(1.,0.,0.));
#225=DIRECTION('center_axis',(0.,0.,-1.));
#226=DIRECTION('ref_axis',(1.,0.,0.));
#227=DIRECTION('center_axis',(0.,0.,-1.));
#228=DIRECTION('ref_axis',(0.,-1.,0.));
#229=DIRECTION('center_axis',(0.,0.,1.));
#230=DIRECTION('ref_axis',(1.,0.,0.));
#231=DIRECTION('center_axis',(0.,0.,1.));
#232=DIRECTION('ref_axis',(1.,0.,0.));
#233=DIRECTION('center_axis',(0.,0.,1.));
#234=DIRECTION('ref_axis',(1.,0.,0.));
#235=DIRECTION('',(0.,0.,-1.));
#236=DIRECTION('center_axis',(0.,0.,-1.));
#237=DIRECTION('ref_axis',(1.,0.,0.));
#238=DIRECTION('center_axis',(0.,0.,-1.));
#239=DIRECTION('ref_axis',(1.,0.,0.));
#240=DIRECTION('center_axis',(0.,0.,1.));
#241=DIRECTION('ref_axis',(1.,0.,0.));
#242=DIRECTION('center_axis',(0.,0.,-1.));
#243=DIRECTION('ref_axis',(1.,0.,0.));
#244=DIRECTION('center_axis',(0.,0.,-1.));
#245=DIRECTION('ref_axis',(1.,0.,0.));
#246=DIRECTION('center_axis',(0.,0.,-1.));
#247=DIRECTION('ref_axis',(0.,1.,0.));
#248=DIRECTION('center_axis',(0.,0.,-1.));
#249=DIRECTION('ref_axis',(1.,0.,0.));
#250=DIRECTION('center_axis',(0.,0.,-1.));
#251=DIRECTION('ref_axis',(1.,0.,0.));
#252=DIRECTION('',(0.,0.,1.));
#253=DIRECTION('center_axis',(0.,0.,-1.));
#254=DIRECTION('ref_axis',(-1.,0.,0.));
#255=DIRECTION('center_axis',(0.,0.,-1.));
#256=DIRECTION('ref_axis',(1.,0.,0.));
#257=DIRECTION('center_axis',(0.,0.,-1.));
#258=DIRECTION('ref_axis',(1.,0.,0.));
#259=DIRECTION('center_axis',(0.,0.,-1.));
#260=DIRECTION('ref_axis',(0.,1.,0.));
#261=DIRECTION('',(0.,0.,1.));
#262=DIRECTION('center_axis',(0.,0.,-1.));
#263=DIRECTION('ref_axis',(1.,0.,0.));
#264=DIRECTION('center_axis',(0.,0.,-1.));
#265=DIRECTION('ref_axis',(1.,0.,0.));
#266=DIRECTION('center_axis',(0.,0.,-1.));
#267=DIRECTION('ref_axis',(0.,1.,0.));
#268=DIRECTION('',(4.30002198846827E-17,0.351123441588392,0.936329177569044));
#269=DIRECTION('center_axis',(0.,0.,1.));
#270=DIRECTION('ref_axis',(0.,-1.,0.));
#271=DIRECTION('',(0.,0.,-1.));
#272=DIRECTION('center_axis',(0.,0.,1.));
#273=DIRECTION('ref_axis',(1.,0.,0.));
#274=DIRECTION('center_axis',(0.,0.,1.));
#275=DIRECTION('ref_axis',(1.,0.,0.));
#276=DIRECTION('center_axis',(0.,0.,-1.));
#277=DIRECTION('ref_axis',(1.,0.,0.));
#278=CARTESIAN_POINT('',(0.,0.,0.));
#279=CARTESIAN_POINT('Origin',(5.53597525486171,15.2171104014101,-14.4111815953204));
#280=CARTESIAN_POINT('',(5.53597525486171,21.9671104014101,-14.4111815953204));
#281=CARTESIAN_POINT('',(5.53597525486171,8.46711040141013,-14.4111815953204));
#282=CARTESIAN_POINT('Origin',(5.53597525486171,15.2171104014101,-14.4111815953204));
#283=CARTESIAN_POINT('Origin',(5.53597525486171,15.2171104014101,-14.4111815953204));
#284=CARTESIAN_POINT('',(5.53597525486171,18.2171104014101,-14.4111815953204));
#285=CARTESIAN_POINT('Origin',(5.53597525486171,15.2171104014101,-14.4111815953204));
#286=CARTESIAN_POINT('Origin',(5.53597525486171,15.2171104014101,10.2888184046796));
#287=CARTESIAN_POINT('',(9.53597525486171,15.2171104014101,40.2888184046796));
#288=CARTESIAN_POINT('',(1.53597525486171,15.2171104014101,40.2888184046796));
#289=CARTESIAN_POINT('Origin',(5.53597525486171,15.2171104014101,40.2888184046796));
#290=CARTESIAN_POINT('Origin',(5.53597525486171,15.2171104014101,40.2888184046796));
#291=CARTESIAN_POINT('',(1.53597525486171,15.2171104014101,17.2888184046796));
#292=CARTESIAN_POINT('',(1.53597525486171,15.2171104014101,10.2888184046796));
#293=CARTESIAN_POINT('Origin',(5.53597525486171,15.2171104014101,17.2888184046796));
#294=CARTESIAN_POINT('Origin',(5.53597525486171,15.2171104014101,40.2888184046796));
#295=CARTESIAN_POINT('Origin',(5.53597525486171,24.2171104014101,17.2888184046796));
#296=CARTESIAN_POINT('',(5.53597525486171,24.2171104014101,17.2888184046796));
#297=CARTESIAN_POINT('',(5.53597525486171,6.21711040141013,17.2888184046796));
#298=CARTESIAN_POINT('Origin',(5.53597525486171,15.2171104014101,17.2888184046796));
#299=CARTESIAN_POINT('Origin',(5.53597525486171,15.2171104014101,17.2888184046796));
#300=CARTESIAN_POINT('Origin',(5.53597525486171,15.2171104014101,-0.961181595320424));
#301=CARTESIAN_POINT('',(5.53597525486171,24.2171104014101,-19.2111815953204));
#302=CARTESIAN_POINT('',(5.53597525486171,6.21711040141013,-19.2111815953204));
#303=CARTESIAN_POINT('Origin',(5.53597525486171,15.2171104014101,-19.2111815953204));
#304=CARTESIAN_POINT('Origin',(5.53597525486171,15.2171104014101,-19.2111815953204));
#305=CARTESIAN_POINT('',(5.53597525486171,6.21711040141013,-0.961181595320424));
#306=CARTESIAN_POINT('Origin',(5.53597525486171,22.7171104014101,-19.2111815953204));
#307=CARTESIAN_POINT('',(5.53597525486171,22.7171104014101,-19.2111815953204));
#308=CARTESIAN_POINT('',(5.53597525486171,7.71711040141013,-19.2111815953204));
#309=CARTESIAN_POINT('Origin',(5.53597525486171,15.2171104014101,-19.2111815953204));
#310=CARTESIAN_POINT('Origin',(5.53597525486171,15.2171104014101,-19.2111815953204));
#311=CARTESIAN_POINT('Origin',(5.53597525486171,15.2171104014101,-17.8111815953204));
#312=CARTESIAN_POINT('',(5.53597525486171,7.71711040141013,-16.4111815953204));
#313=CARTESIAN_POINT('',(5.53597525486171,7.71711040141013,-17.8111815953204));
#314=CARTESIAN_POINT('',(5.53597525486171,22.7171104014101,-16.4111815953204));
#315=CARTESIAN_POINT('Origin',(5.53597525486171,15.2171104014101,-16.4111815953204));
#316=CARTESIAN_POINT('Origin',(5.53597525486171,15.2171104014101,-16.4111815953204));
#317=CARTESIAN_POINT('Origin',(5.53597525486171,15.2171104014101,-15.4111815953204));
#318=CARTESIAN_POINT('',(5.53597525486171,8.09211040141013,-15.4111815953204));
#319=CARTESIAN_POINT('Origin',(5.53597525486171,15.2171104014101,-16.4611815953204));
#320=CARTESIAN_POINT('',(5.53597525486171,18.2171104014101,-19.7111815953204));
#321=CARTESIAN_POINT('',(5.53597525486171,18.2171104014101,-16.4611815953204));
#322=CARTESIAN_POINT('',(5.53597525486171,12.2171104014101,-19.7111815953204));
#323=CARTESIAN_POINT('Origin',(5.53597525486171,15.2171104014101,-19.7111815953204));
#324=CARTESIAN_POINT('Origin',(5.53597525486171,15.2171104014101,-19.7111815953204));
#325=CARTESIAN_POINT('Origin',(5.53597525486171,12.2171104014101,-19.7111815953204));
#326=UNCERTAINTY_MEASURE_WITH_UNIT(LENGTH_MEASURE(0.01),#330,
'DISTANCE_ACCURACY_VALUE',
'Maximum model space distance between geometric entities at asserted c
onnectivities');
#327=UNCERTAINTY_MEASURE_WITH_UNIT(LENGTH_MEASURE(0.01),#330,
'DISTANCE_ACCURACY_VALUE',
'Maximum model space distance between geometric entities at asserted c
onnectivities');
#328=(
GEOMETRIC_REPRESENTATION_CONTEXT(3)
GLOBAL_UNCERTAINTY_ASSIGNED_CONTEXT((#326))
GLOBAL_UNIT_ASSIGNED_CONTEXT((#330,#332,#333))
REPRESENTATION_CONTEXT('','3D')
);
#329=(
GEOMETRIC_REPRESENTATION_CONTEXT(3)
GLOBAL_UNCERTAINTY_ASSIGNED_CONTEXT((#327))
GLOBAL_UNIT_ASSIGNED_CONTEXT((#330,#332,#333))
REPRESENTATION_CONTEXT('','3D')
);
#330=(
LENGTH_UNIT()
NAMED_UNIT(*)
SI_UNIT(.MILLI.,.METRE.)
);
#331=(
LENGTH_UNIT()
NAMED_UNIT(*)
SI_UNIT(.CENTI.,.METRE.)
);
#332=(
NAMED_UNIT(*)
PLANE_ANGLE_UNIT()
SI_UNIT($,.RADIAN.)
);
#333=(
NAMED_UNIT(*)
SI_UNIT($,.STERADIAN.)
SOLID_ANGLE_UNIT()
);
#334=SHAPE_DEFINITION_REPRESENTATION(#335,#336);
#335=PRODUCT_DEFINITION_SHAPE('',$,#338);
#336=SHAPE_REPRESENTATION('',(#192),#328);
#337=PRODUCT_DEFINITION_CONTEXT('part definition',#342,'design');
#338=PRODUCT_DEFINITION('VH1','VH1',#339,#337);
#339=PRODUCT_DEFINITION_FORMATION('',$,#344);
#340=PRODUCT_RELATED_PRODUCT_CATEGORY('VH1','VH1',(#344));
#341=APPLICATION_PROTOCOL_DEFINITION('international standard',
'automotive_design',2009,#342);
#342=APPLICATION_CONTEXT(
'Core Data for Automotive Mechanical Design Process');
#343=PRODUCT_CONTEXT('part definition',#342,'mechanical');
#344=PRODUCT('VH1','VH1',$,(#343));
#345=PRESENTATION_STYLE_ASSIGNMENT((#348));
#346=PRESENTATION_STYLE_ASSIGNMENT((#349));
#347=PRESENTATION_STYLE_ASSIGNMENT((#350));
#348=SURFACE_STYLE_USAGE(.BOTH.,#357);
#349=SURFACE_STYLE_USAGE(.BOTH.,#358);
#350=SURFACE_STYLE_USAGE(.BOTH.,#359);
#351=SURFACE_STYLE_RENDERING_WITH_PROPERTIES($,#369,(#354));
#352=SURFACE_STYLE_RENDERING_WITH_PROPERTIES($,#370,(#355));
#353=SURFACE_STYLE_RENDERING_WITH_PROPERTIES($,#371,(#356));
#354=SURFACE_STYLE_TRANSPARENT(0.);
#355=SURFACE_STYLE_TRANSPARENT(0.);
#356=SURFACE_STYLE_TRANSPARENT(0.);
#357=SURFACE_SIDE_STYLE('',(#360,#351));
#358=SURFACE_SIDE_STYLE('',(#361,#352));
#359=SURFACE_SIDE_STYLE('',(#362,#353));
#360=SURFACE_STYLE_FILL_AREA(#363);
#361=SURFACE_STYLE_FILL_AREA(#364);
#362=SURFACE_STYLE_FILL_AREA(#365);
#363=FILL_AREA_STYLE('',(#366));
#364=FILL_AREA_STYLE('',(#367));
#365=FILL_AREA_STYLE('',(#368));
#366=FILL_AREA_STYLE_COLOUR('',#369);
#367=FILL_AREA_STYLE_COLOUR('',#370);
#368=FILL_AREA_STYLE_COLOUR('',#371);
#369=COLOUR_RGB('',0.749019607843137,0.749019607843137,0.749019607843137);
#370=COLOUR_RGB('',0.96078431372549,0.96078431372549,0.96078431372549);
#371=COLOUR_RGB('',0.745098039215686,0.737254901960784,0.729411764705882);
ENDSEC;
END-ISO-10303-21;
