ISO-10303-21;
HEADER;
FILE_DESCRIPTION((''),'2;1');
FILE_NAME('EADR32','2018-01-08T',('FIMABER1'),(''),
'CREO PARAMETRIC BY PTC INC, 2017170','CREO PARAMETRIC BY PTC INC, 2017170','');
FILE_SCHEMA(('CONFIG_CONTROL_DESIGN'));
ENDSEC;
DATA;
#17=CARTESIAN_POINT('',(0.E0,2.E0,0.E0));
#18=DIRECTION('',(0.E0,1.E0,0.E0));
#19=DIRECTION('',(0.E0,0.E0,-1.E0));
#20=AXIS2_PLACEMENT_3D('',#17,#18,#19);
#22=CARTESIAN_POINT('',(0.E0,2.E0,0.E0));
#23=DIRECTION('',(0.E0,1.E0,0.E0));
#24=DIRECTION('',(0.E0,0.E0,1.E0));
#25=AXIS2_PLACEMENT_3D('',#22,#23,#24);
#27=CARTESIAN_POINT('',(0.E0,2.E0,0.E0));
#28=DIRECTION('',(0.E0,-1.E0,0.E0));
#29=DIRECTION('',(0.E0,0.E0,-1.E0));
#30=AXIS2_PLACEMENT_3D('',#27,#28,#29);
#32=CARTESIAN_POINT('',(0.E0,2.E0,0.E0));
#33=DIRECTION('',(0.E0,-1.E0,0.E0));
#34=DIRECTION('',(0.E0,0.E0,1.E0));
#35=AXIS2_PLACEMENT_3D('',#32,#33,#34);
#37=DIRECTION('',(0.E0,1.E0,0.E0));
#38=VECTOR('',#37,2.E0);
#39=CARTESIAN_POINT('',(0.E0,0.E0,-1.8E1));
#40=LINE('',#39,#38);
#41=DIRECTION('',(0.E0,1.E0,0.E0));
#42=VECTOR('',#41,2.E0);
#43=CARTESIAN_POINT('',(0.E0,0.E0,1.8E1));
#44=LINE('',#43,#42);
#45=CARTESIAN_POINT('',(0.E0,0.E0,0.E0));
#46=DIRECTION('',(0.E0,-1.E0,0.E0));
#47=DIRECTION('',(0.E0,0.E0,-1.E0));
#48=AXIS2_PLACEMENT_3D('',#45,#46,#47);
#50=CARTESIAN_POINT('',(0.E0,0.E0,0.E0));
#51=DIRECTION('',(0.E0,-1.E0,0.E0));
#52=DIRECTION('',(0.E0,0.E0,1.E0));
#53=AXIS2_PLACEMENT_3D('',#50,#51,#52);
#55=CARTESIAN_POINT('',(0.E0,-1.776356839400E-14,0.E0));
#56=DIRECTION('',(0.E0,1.E0,0.E0));
#57=DIRECTION('',(0.E0,0.E0,-1.E0));
#58=AXIS2_PLACEMENT_3D('',#55,#56,#57);
#60=CARTESIAN_POINT('',(0.E0,-1.776356839400E-14,0.E0));
#61=DIRECTION('',(0.E0,1.E0,0.E0));
#62=DIRECTION('',(0.E0,0.E0,1.E0));
#63=AXIS2_PLACEMENT_3D('',#60,#61,#62);
#65=DIRECTION('',(-3.263226763172E-14,-7.071067811866E-1,7.071067811865E-1));
#66=VECTOR('',#65,1.414213562373E-1);
#67=CARTESIAN_POINT('',(0.E0,9.999999999998E-2,1.59E1));
#68=LINE('',#67,#66);
#69=CARTESIAN_POINT('',(0.E0,1.E-1,0.E0));
#70=DIRECTION('',(0.E0,1.E0,0.E0));
#71=DIRECTION('',(0.E0,0.E0,-1.E0));
#72=AXIS2_PLACEMENT_3D('',#69,#70,#71);
#74=DIRECTION('',(0.E0,-7.071067811866E-1,-7.071067811865E-1));
#75=VECTOR('',#74,1.414213562373E-1);
#76=CARTESIAN_POINT('',(0.E0,9.999999999998E-2,-1.59E1));
#77=LINE('',#76,#75);
#78=CARTESIAN_POINT('',(0.E0,1.E-1,0.E0));
#79=DIRECTION('',(0.E0,1.E0,0.E0));
#80=DIRECTION('',(0.E0,0.E0,1.E0));
#81=AXIS2_PLACEMENT_3D('',#78,#79,#80);
#83=DIRECTION('',(0.E0,1.E0,0.E0));
#84=VECTOR('',#83,1.8E0);
#85=CARTESIAN_POINT('',(0.E0,9.999999999998E-2,1.59E1));
#86=LINE('',#85,#84);
#87=DIRECTION('',(0.E0,1.E0,0.E0));
#88=VECTOR('',#87,1.8E0);
#89=CARTESIAN_POINT('',(0.E0,9.999999999998E-2,-1.59E1));
#90=LINE('',#89,#88);
#91=CARTESIAN_POINT('',(0.E0,1.9E0,0.E0));
#92=DIRECTION('',(0.E0,-1.E0,0.E0));
#93=DIRECTION('',(0.E0,0.E0,-1.E0));
#94=AXIS2_PLACEMENT_3D('',#91,#92,#93);
#96=DIRECTION('',(1.581168595521E-14,7.071067811866E-1,-7.071067811865E-1));
#97=VECTOR('',#96,1.414213562373E-1);
#98=CARTESIAN_POINT('',(0.E0,1.9E0,-1.59E1));
#99=LINE('',#98,#97);
#100=CARTESIAN_POINT('',(0.E0,1.9E0,0.E0));
#101=DIRECTION('',(0.E0,-1.E0,0.E0));
#102=DIRECTION('',(0.E0,0.E0,1.E0));
#103=AXIS2_PLACEMENT_3D('',#100,#101,#102);
#105=DIRECTION('',(-1.581420109885E-14,7.071067811866E-1,7.071067811865E-1));
#106=VECTOR('',#105,1.414213562373E-1);
#107=CARTESIAN_POINT('',(0.E0,1.9E0,1.59E1));
#108=LINE('',#107,#106);
#109=CARTESIAN_POINT('',(0.E0,0.E0,1.8E1));
#110=CARTESIAN_POINT('',(0.E0,2.E0,1.8E1));
#111=VERTEX_POINT('',#109);
#112=VERTEX_POINT('',#110);
#113=CARTESIAN_POINT('',(0.E0,0.E0,-1.8E1));
#114=CARTESIAN_POINT('',(0.E0,2.E0,-1.8E1));
#115=VERTEX_POINT('',#113);
#116=VERTEX_POINT('',#114);
#117=CARTESIAN_POINT('',(0.E0,9.999999999998E-2,-1.59E1));
#118=CARTESIAN_POINT('',(0.E0,1.9E0,-1.59E1));
#119=VERTEX_POINT('',#117);
#120=VERTEX_POINT('',#118);
#121=CARTESIAN_POINT('',(0.E0,9.999999999998E-2,1.59E1));
#122=CARTESIAN_POINT('',(0.E0,1.9E0,1.59E1));
#123=VERTEX_POINT('',#121);
#124=VERTEX_POINT('',#122);
#125=CARTESIAN_POINT('',(0.E0,0.E0,-1.6E1));
#126=VERTEX_POINT('',#125);
#127=CARTESIAN_POINT('',(0.E0,0.E0,1.6E1));
#128=VERTEX_POINT('',#127);
#129=CARTESIAN_POINT('',(0.E0,2.E0,1.6E1));
#130=VERTEX_POINT('',#129);
#131=CARTESIAN_POINT('',(0.E0,2.E0,-1.6E1));
#132=VERTEX_POINT('',#131);
#133=CARTESIAN_POINT('',(0.E0,0.E0,0.E0));
#134=DIRECTION('',(0.E0,1.E0,0.E0));
#135=DIRECTION('',(0.E0,0.E0,-1.E0));
#136=AXIS2_PLACEMENT_3D('',#133,#134,#135);
#137=CYLINDRICAL_SURFACE('',#136,1.8E1);
#139=ORIENTED_EDGE('',*,*,#138,.T.);
#141=ORIENTED_EDGE('',*,*,#140,.F.);
#143=ORIENTED_EDGE('',*,*,#142,.T.);
#145=ORIENTED_EDGE('',*,*,#144,.T.);
#146=EDGE_LOOP('',(#139,#141,#143,#145));
#147=FACE_OUTER_BOUND('',#146,.F.);
#148=ADVANCED_FACE('',(#147),#137,.T.);
#149=FILL_AREA_STYLE_COLOUR('',#3);
#150=FILL_AREA_STYLE('',(#149));
#151=SURFACE_STYLE_FILL_AREA(#150);
#152=SURFACE_SIDE_STYLE('',(#151));
#153=SURFACE_STYLE_USAGE(.BOTH.,#152);
#154=PRESENTATION_STYLE_ASSIGNMENT((#153));
#155=STYLED_ITEM('',(#154),#148);
#156=CARTESIAN_POINT('',(0.E0,2.E0,0.E0));
#157=DIRECTION('',(0.E0,-1.E0,0.E0));
#158=DIRECTION('',(0.E0,0.E0,-1.E0));
#159=AXIS2_PLACEMENT_3D('',#156,#157,#158);
#160=PLANE('',#159);
#161=ORIENTED_EDGE('',*,*,#138,.F.);
#163=ORIENTED_EDGE('',*,*,#162,.F.);
#164=EDGE_LOOP('',(#161,#163));
#165=FACE_OUTER_BOUND('',#164,.F.);
#167=ORIENTED_EDGE('',*,*,#166,.F.);
#169=ORIENTED_EDGE('',*,*,#168,.F.);
#170=EDGE_LOOP('',(#167,#169));
#171=FACE_BOUND('',#170,.F.);
#172=ADVANCED_FACE('',(#165,#171),#160,.F.);
#173=FILL_AREA_STYLE_COLOUR('',#3);
#174=FILL_AREA_STYLE('',(#173));
#175=SURFACE_STYLE_FILL_AREA(#174);
#176=SURFACE_SIDE_STYLE('',(#175));
#177=SURFACE_STYLE_USAGE(.BOTH.,#176);
#178=PRESENTATION_STYLE_ASSIGNMENT((#177));
#179=STYLED_ITEM('',(#178),#172);
#180=CARTESIAN_POINT('',(0.E0,0.E0,0.E0));
#181=DIRECTION('',(0.E0,1.E0,0.E0));
#182=DIRECTION('',(0.E0,0.E0,-1.E0));
#183=AXIS2_PLACEMENT_3D('',#180,#181,#182);
#184=CYLINDRICAL_SURFACE('',#183,1.8E1);
#185=ORIENTED_EDGE('',*,*,#162,.T.);
#186=ORIENTED_EDGE('',*,*,#144,.F.);
#188=ORIENTED_EDGE('',*,*,#187,.T.);
#189=ORIENTED_EDGE('',*,*,#140,.T.);
#190=EDGE_LOOP('',(#185,#186,#188,#189));
#191=FACE_OUTER_BOUND('',#190,.F.);
#192=ADVANCED_FACE('',(#191),#184,.T.);
#193=FILL_AREA_STYLE_COLOUR('',#3);
#194=FILL_AREA_STYLE('',(#193));
#195=SURFACE_STYLE_FILL_AREA(#194);
#196=SURFACE_SIDE_STYLE('',(#195));
#197=SURFACE_STYLE_USAGE(.BOTH.,#196);
#198=PRESENTATION_STYLE_ASSIGNMENT((#197));
#199=STYLED_ITEM('',(#198),#192);
#200=CARTESIAN_POINT('',(1.8E1,0.E0,0.E0));
#201=DIRECTION('',(0.E0,1.E0,0.E0));
#202=DIRECTION('',(0.E0,0.E0,1.E0));
#203=AXIS2_PLACEMENT_3D('',#200,#201,#202);
#204=PLANE('',#203);
#205=ORIENTED_EDGE('',*,*,#187,.F.);
#206=ORIENTED_EDGE('',*,*,#142,.F.);
#207=EDGE_LOOP('',(#205,#206));
#208=FACE_OUTER_BOUND('',#207,.F.);
#210=ORIENTED_EDGE('',*,*,#209,.F.);
#212=ORIENTED_EDGE('',*,*,#211,.F.);
#213=EDGE_LOOP('',(#210,#212));
#214=FACE_BOUND('',#213,.F.);
#215=ADVANCED_FACE('',(#208,#214),#204,.F.);
#216=FILL_AREA_STYLE_COLOUR('',#3);
#217=FILL_AREA_STYLE('',(#216));
#218=SURFACE_STYLE_FILL_AREA(#217);
#219=SURFACE_SIDE_STYLE('',(#218));
#220=SURFACE_STYLE_USAGE(.BOTH.,#219);
#221=PRESENTATION_STYLE_ASSIGNMENT((#220));
#222=STYLED_ITEM('',(#221),#215);
#223=CARTESIAN_POINT('',(0.E0,5.E-2,0.E0));
#224=DIRECTION('',(0.E0,-1.E0,0.E0));
#225=DIRECTION('',(0.E0,0.E0,-1.E0));
#226=AXIS2_PLACEMENT_3D('',#223,#224,#225);
#227=CONICAL_SURFACE('',#226,1.595E1,4.5E1);
#228=ORIENTED_EDGE('',*,*,#209,.T.);
#230=ORIENTED_EDGE('',*,*,#229,.F.);
#232=ORIENTED_EDGE('',*,*,#231,.F.);
#234=ORIENTED_EDGE('',*,*,#233,.T.);
#235=EDGE_LOOP('',(#228,#230,#232,#234));
#236=FACE_OUTER_BOUND('',#235,.F.);
#237=ADVANCED_FACE('',(#236),#227,.F.);
#238=FILL_AREA_STYLE_COLOUR('',#3);
#239=FILL_AREA_STYLE('',(#238));
#240=SURFACE_STYLE_FILL_AREA(#239);
#241=SURFACE_SIDE_STYLE('',(#240));
#242=SURFACE_STYLE_USAGE(.BOTH.,#241);
#243=PRESENTATION_STYLE_ASSIGNMENT((#242));
#244=STYLED_ITEM('',(#243),#237);
#245=CARTESIAN_POINT('',(0.E0,5.E-2,0.E0));
#246=DIRECTION('',(0.E0,-1.E0,0.E0));
#247=DIRECTION('',(0.E0,0.E0,-1.E0));
#248=AXIS2_PLACEMENT_3D('',#245,#246,#247);
#249=CONICAL_SURFACE('',#248,1.595E1,4.5E1);
#250=ORIENTED_EDGE('',*,*,#211,.T.);
#251=ORIENTED_EDGE('',*,*,#233,.F.);
#253=ORIENTED_EDGE('',*,*,#252,.F.);
#254=ORIENTED_EDGE('',*,*,#229,.T.);
#255=EDGE_LOOP('',(#250,#251,#253,#254));
#256=FACE_OUTER_BOUND('',#255,.F.);
#257=ADVANCED_FACE('',(#256),#249,.F.);
#258=FILL_AREA_STYLE_COLOUR('',#3);
#259=FILL_AREA_STYLE('',(#258));
#260=SURFACE_STYLE_FILL_AREA(#259);
#261=SURFACE_SIDE_STYLE('',(#260));
#262=SURFACE_STYLE_USAGE(.BOTH.,#261);
#263=PRESENTATION_STYLE_ASSIGNMENT((#262));
#264=STYLED_ITEM('',(#263),#257);
#265=CARTESIAN_POINT('',(0.E0,0.E0,0.E0));
#266=DIRECTION('',(0.E0,1.E0,0.E0));
#267=DIRECTION('',(0.E0,0.E0,-1.E0));
#268=AXIS2_PLACEMENT_3D('',#265,#266,#267);
#269=CYLINDRICAL_SURFACE('',#268,1.59E1);
#271=ORIENTED_EDGE('',*,*,#270,.T.);
#273=ORIENTED_EDGE('',*,*,#272,.F.);
#274=ORIENTED_EDGE('',*,*,#252,.T.);
#276=ORIENTED_EDGE('',*,*,#275,.T.);
#277=EDGE_LOOP('',(#271,#273,#274,#276));
#278=FACE_OUTER_BOUND('',#277,.F.);
#279=ADVANCED_FACE('',(#278),#269,.F.);
#280=FILL_AREA_STYLE_COLOUR('',#3);
#281=FILL_AREA_STYLE('',(#280));
#282=SURFACE_STYLE_FILL_AREA(#281);
#283=SURFACE_SIDE_STYLE('',(#282));
#284=SURFACE_STYLE_USAGE(.BOTH.,#283);
#285=PRESENTATION_STYLE_ASSIGNMENT((#284));
#286=STYLED_ITEM('',(#285),#279);
#287=CARTESIAN_POINT('',(0.E0,1.95E0,0.E0));
#288=DIRECTION('',(0.E0,1.E0,0.E0));
#289=DIRECTION('',(0.E0,0.E0,1.E0));
#290=AXIS2_PLACEMENT_3D('',#287,#288,#289);
#291=CONICAL_SURFACE('',#290,1.595E1,4.5E1);
#292=ORIENTED_EDGE('',*,*,#166,.T.);
#294=ORIENTED_EDGE('',*,*,#293,.F.);
#295=ORIENTED_EDGE('',*,*,#270,.F.);
#297=ORIENTED_EDGE('',*,*,#296,.T.);
#298=EDGE_LOOP('',(#292,#294,#295,#297));
#299=FACE_OUTER_BOUND('',#298,.F.);
#300=ADVANCED_FACE('',(#299),#291,.F.);
#301=FILL_AREA_STYLE_COLOUR('',#3);
#302=FILL_AREA_STYLE('',(#301));
#303=SURFACE_STYLE_FILL_AREA(#302);
#304=SURFACE_SIDE_STYLE('',(#303));
#305=SURFACE_STYLE_USAGE(.BOTH.,#304);
#306=PRESENTATION_STYLE_ASSIGNMENT((#305));
#307=STYLED_ITEM('',(#306),#300);
#308=CARTESIAN_POINT('',(0.E0,1.95E0,0.E0));
#309=DIRECTION('',(0.E0,1.E0,0.E0));
#310=DIRECTION('',(0.E0,0.E0,1.E0));
#311=AXIS2_PLACEMENT_3D('',#308,#309,#310);
#312=CONICAL_SURFACE('',#311,1.595E1,4.5E1);
#313=ORIENTED_EDGE('',*,*,#168,.T.);
#314=ORIENTED_EDGE('',*,*,#296,.F.);
#316=ORIENTED_EDGE('',*,*,#315,.F.);
#317=ORIENTED_EDGE('',*,*,#293,.T.);
#318=EDGE_LOOP('',(#313,#314,#316,#317));
#319=FACE_OUTER_BOUND('',#318,.F.);
#320=ADVANCED_FACE('',(#319),#312,.F.);
#321=FILL_AREA_STYLE_COLOUR('',#3);
#322=FILL_AREA_STYLE('',(#321));
#323=SURFACE_STYLE_FILL_AREA(#322);
#324=SURFACE_SIDE_STYLE('',(#323));
#325=SURFACE_STYLE_USAGE(.BOTH.,#324);
#326=PRESENTATION_STYLE_ASSIGNMENT((#325));
#327=STYLED_ITEM('',(#326),#320);
#328=CARTESIAN_POINT('',(0.E0,0.E0,0.E0));
#329=DIRECTION('',(0.E0,1.E0,0.E0));
#330=DIRECTION('',(0.E0,0.E0,-1.E0));
#331=AXIS2_PLACEMENT_3D('',#328,#329,#330);
#332=CYLINDRICAL_SURFACE('',#331,1.59E1);
#333=ORIENTED_EDGE('',*,*,#315,.T.);
#334=ORIENTED_EDGE('',*,*,#275,.F.);
#335=ORIENTED_EDGE('',*,*,#231,.T.);
#336=ORIENTED_EDGE('',*,*,#272,.T.);
#337=EDGE_LOOP('',(#333,#334,#335,#336));
#338=FACE_OUTER_BOUND('',#337,.F.);
#339=ADVANCED_FACE('',(#338),#332,.F.);
#340=FILL_AREA_STYLE_COLOUR('',#3);
#341=FILL_AREA_STYLE('',(#340));
#342=SURFACE_STYLE_FILL_AREA(#341);
#343=SURFACE_SIDE_STYLE('',(#342));
#344=SURFACE_STYLE_USAGE(.BOTH.,#343);
#345=PRESENTATION_STYLE_ASSIGNMENT((#344));
#346=STYLED_ITEM('',(#345),#339);
#347=CLOSED_SHELL('',(#148,#172,#192,#215,#237,#257,#279,#300,#320,#339));
#348=MANIFOLD_SOLID_BREP('',#347);
#350=DIMENSIONAL_EXPONENTS(0.E0,0.E0,0.E0,0.E0,0.E0,0.E0,0.E0);
#352=PLANE_ANGLE_MEASURE_WITH_UNIT(PLANE_ANGLE_MEASURE(1.745329251994E-2),#351);
#353=(CONVERSION_BASED_UNIT('DEGREE',#352)NAMED_UNIT(*)PLANE_ANGLE_UNIT());
#355=UNCERTAINTY_MEASURE_WITH_UNIT(LENGTH_MEASURE(1.2E-3),#349,'closure',
'Maximum model space distance between geometric entities at asserted connectivities');
#356=(GEOMETRIC_REPRESENTATION_CONTEXT(3)GLOBAL_UNCERTAINTY_ASSIGNED_CONTEXT((
#355))GLOBAL_UNIT_ASSIGNED_CONTEXT((#349,#353,#354))REPRESENTATION_CONTEXT
('ID1','3'));
#358=MECHANICAL_DESIGN_GEOMETRIC_PRESENTATION_REPRESENTATION('',(#155,#179,#199,
#222,#244,#264,#286,#307,#327,#346),#356);
#359=APPLICATION_CONTEXT(
'CONFIGURATION CONTROLLED 3D DESIGNS OF MECHANICAL PARTS AND ASSEMBLIES');
#360=APPLICATION_PROTOCOL_DEFINITION('international standard',
'config_control_design',1994,#359);
#361=DESIGN_CONTEXT('',#359,'design');
#362=MECHANICAL_CONTEXT('',#359,'mechanical');
#363=PRODUCT('EADR32','EADR32','NOT SPECIFIED',(#362));
#364=PRODUCT_DEFINITION_FORMATION_WITH_SPECIFIED_SOURCE('1','LAST_VERSION',#363,
.MADE.);
#368=PRODUCT_CATEGORY('part','');
#369=PRODUCT_RELATED_PRODUCT_CATEGORY('detail','',(#363));
#370=PRODUCT_CATEGORY_RELATIONSHIP('','',#368,#369);
#371=SECURITY_CLASSIFICATION_LEVEL('unclassified');
#372=SECURITY_CLASSIFICATION('','',#371);
#373=CC_DESIGN_SECURITY_CLASSIFICATION(#372,(#364));
#374=APPROVAL_STATUS('approved');
#375=APPROVAL(#374,'');
#376=CC_DESIGN_APPROVAL(#375,(#372,#364,#365));
#377=CALENDAR_DATE(118,8,1);
#378=COORDINATED_UNIVERSAL_TIME_OFFSET(2,0,.AHEAD.);
#379=LOCAL_TIME(14,52,3.3E1,#378);
#380=DATE_AND_TIME(#377,#379);
#381=APPROVAL_DATE_TIME(#380,#375);
#382=DATE_TIME_ROLE('creation_date');
#383=CC_DESIGN_DATE_AND_TIME_ASSIGNMENT(#380,#382,(#365));
#384=DATE_TIME_ROLE('classification_date');
#385=CC_DESIGN_DATE_AND_TIME_ASSIGNMENT(#380,#384,(#372));
#386=PERSON('UNSPECIFIED','UNSPECIFIED',$,$,$,$);
#387=ORGANIZATION('UNSPECIFIED','UNSPECIFIED','UNSPECIFIED');
#388=PERSON_AND_ORGANIZATION(#386,#387);
#389=APPROVAL_ROLE('approver');
#390=APPROVAL_PERSON_ORGANIZATION(#388,#375,#389);
#391=PERSON_AND_ORGANIZATION_ROLE('creator');
#392=CC_DESIGN_PERSON_AND_ORGANIZATION_ASSIGNMENT(#388,#391,(#364,#365));
#393=PERSON_AND_ORGANIZATION_ROLE('design_supplier');
#394=CC_DESIGN_PERSON_AND_ORGANIZATION_ASSIGNMENT(#388,#393,(#364));
#395=PERSON_AND_ORGANIZATION_ROLE('classification_officer');
#396=CC_DESIGN_PERSON_AND_ORGANIZATION_ASSIGNMENT(#388,#395,(#372));
#397=PERSON_AND_ORGANIZATION_ROLE('design_owner');
#398=CC_DESIGN_PERSON_AND_ORGANIZATION_ASSIGNMENT(#388,#397,(#363));
#1=DRAUGHTING_PRE_DEFINED_COLOUR('green');
#2=COLOUR_RGB('',1.1E-2,1.2E-2,1.E0);
#3=COLOUR_RGB('',5.999999865890E-2,5.000000074506E-2,7.000000029802E-2);
#4=COLOUR_RGB('',4.1E-1,2.61589E-1,1.12848E-1);
#5=COLOUR_RGB('',5.04854E-1,1.5455E-2,1.5455E-2);
#6=COLOUR_RGB('',6.40777E-1,6.40777E-1,6.40777E-1);
#7=COLOUR_RGB('',6.69062E-1,6.69903E-1,6.55217E-1);
#8=COLOUR_RGB('',6.952E-1,7.426E-1,7.9E-1);
#9=COLOUR_RGB('',7.960784313725E-1,8.235294117647E-1,9.372549019608E-1);
#10=COLOUR_RGB('',8.E-1,8.E-1,8.E-1);
#11=COLOUR_RGB('',9.21569E-1,7.05882E-1,4.70588E-1);
#12=DRAUGHTING_PRE_DEFINED_COLOUR('red');
#13=DRAUGHTING_PRE_DEFINED_COLOUR('yellow');
#14=COLOUR_RGB('',1.E0,1.E0,5.3E-1);
#15=COLOUR_RGB('',1.E0,1.E0,9.49E-1);
#16=DRAUGHTING_PRE_DEFINED_COLOUR('white');
#21=CIRCLE('',#20,1.8E1);
#26=CIRCLE('',#25,1.8E1);
#31=CIRCLE('',#30,1.6E1);
#36=CIRCLE('',#35,1.6E1);
#49=CIRCLE('',#48,1.8E1);
#54=CIRCLE('',#53,1.8E1);
#59=CIRCLE('',#58,1.6E1);
#64=CIRCLE('',#63,1.6E1);
#73=CIRCLE('',#72,1.59E1);
#82=CIRCLE('',#81,1.59E1);
#95=CIRCLE('',#94,1.59E1);
#104=CIRCLE('',#103,1.59E1);
#138=EDGE_CURVE('',#116,#112,#21,.T.);
#140=EDGE_CURVE('',#111,#112,#44,.T.);
#142=EDGE_CURVE('',#111,#115,#54,.T.);
#144=EDGE_CURVE('',#115,#116,#40,.T.);
#162=EDGE_CURVE('',#112,#116,#26,.T.);
#166=EDGE_CURVE('',#132,#130,#31,.T.);
#168=EDGE_CURVE('',#130,#132,#36,.T.);
#187=EDGE_CURVE('',#115,#111,#49,.T.);
#209=EDGE_CURVE('',#126,#128,#59,.T.);
#211=EDGE_CURVE('',#128,#126,#64,.T.);
#229=EDGE_CURVE('',#123,#128,#68,.T.);
#231=EDGE_CURVE('',#119,#123,#73,.T.);
#233=EDGE_CURVE('',#119,#126,#77,.T.);
#252=EDGE_CURVE('',#123,#119,#82,.T.);
#270=EDGE_CURVE('',#120,#124,#95,.T.);
#272=EDGE_CURVE('',#123,#124,#86,.T.);
#275=EDGE_CURVE('',#119,#120,#90,.T.);
#293=EDGE_CURVE('',#124,#130,#108,.T.);
#296=EDGE_CURVE('',#120,#132,#99,.T.);
#315=EDGE_CURVE('',#124,#120,#104,.T.);
#349=(LENGTH_UNIT()NAMED_UNIT(*)SI_UNIT(.MILLI.,.METRE.));
#351=(NAMED_UNIT(*)PLANE_ANGLE_UNIT()SI_UNIT($,.RADIAN.));
#354=(NAMED_UNIT(*)SI_UNIT($,.STERADIAN.)SOLID_ANGLE_UNIT());
#357=ADVANCED_BREP_SHAPE_REPRESENTATION('',(#348),#356);
#365=PRODUCT_DEFINITION('design','',#364,#361);
#366=PRODUCT_DEFINITION_SHAPE('','SHAPE FOR EADR32.',#365);
#367=SHAPE_DEFINITION_REPRESENTATION(#366,#357);
ENDSEC;
END-ISO-10303-21;
