ISO-10303-21;
HEADER;
FILE_DESCRIPTION (( 'STEP AP214' ),
    '1' );
FILE_NAME ('396ISO1EM1.STEP',
    '2021-07-30T07:03:38',
    ( '' ),
    ( '' ),
    'SwSTEP 2.0',
    'SolidWorks 2020',
    '' );
FILE_SCHEMA (( 'AUTOMOTIVE_DESIGN' ));
ENDSEC;

DATA;
#1 = CARTESIAN_POINT ( 'NONE',  ( 42.80000000000000426, -22.99999999999996803, 0.8000000000000000444 ) ) ;
#2 = PLANE ( 'NONE',  #200 ) ;
#3 = PRESENTATION_LAYER_ASSIGNMENT (  '', '', ( #250 ) ) ;
#4 = MANIFOLD_SOLID_BREP ( 'Boss.-Extru.1', #219 ) ;
#5 =( LENGTH_UNIT ( ) NAMED_UNIT ( * ) SI_UNIT ( .MILLI., .METRE. ) );
#6 =( LENGTH_UNIT ( ) NAMED_UNIT ( * ) SI_UNIT ( .MILLI., .METRE. ) );
#7 = DIRECTION ( 'NONE',  ( -0.000000000000000000, 0.000000000000000000, -1.000000000000000000 ) ) ;
#8 = UNCERTAINTY_MEASURE_WITH_UNIT (LENGTH_MEASURE( 1.000000000000000082E-05 ), #6, 'distance_accuracy_value', 'NONE');
#9 = CIRCLE ( 'NONE', #51, 4.000000000000003553 ) ;
#10 = VERTEX_POINT ( 'NONE', #232 ) ;
#11 = ORIENTED_EDGE ( 'NONE', *, *, #303, .T. ) ;
#12 =( NAMED_UNIT ( * ) PLANE_ANGLE_UNIT ( ) SI_UNIT ( $, .RADIAN. ) );
#13 = EDGE_CURVE ( 'NONE', #202, #128, #256, .T. ) ;
#14 = ORIENTED_EDGE ( 'NONE', *, *, #312, .F. ) ;
#15 = DIRECTION ( 'NONE',  ( 1.000000000000000000, 0.000000000000000000, 0.000000000000000000 ) ) ;
#16 = VECTOR ( 'NONE', #67, 1000.000000000000000 ) ;
#17 = EDGE_LOOP ( 'NONE', ( #112, #40, #283, #118 ) ) ;
#18 = FACE_OUTER_BOUND ( 'NONE', #37, .T. ) ;
#19 = VERTEX_POINT ( 'NONE', #259 ) ;
#20 = EDGE_CURVE ( 'NONE', #209, #22, #65, .T. ) ;
#21 = FACE_OUTER_BOUND ( 'NONE', #291, .T. ) ;
#22 = VERTEX_POINT ( 'NONE', #337 ) ;
#23 = DIRECTION ( 'NONE',  ( -0.000000000000000000, -0.000000000000000000, -1.000000000000000000 ) ) ;
#24 = FILL_AREA_STYLE_COLOUR ( '', #182 ) ;
#25 = DIRECTION ( 'NONE',  ( 0.000000000000000000, 1.000000000000000000, 0.000000000000000000 ) ) ;
#26 = ORIENTED_EDGE ( 'NONE', *, *, #246, .F. ) ;
#27 = DIRECTION ( 'NONE',  ( 0.000000000000000000, 0.000000000000000000, 1.000000000000000000 ) ) ;
#28 = CARTESIAN_POINT ( 'NONE',  ( -42.79999999999999005, -22.99999999999998224, 0.8000000000000000444 ) ) ;
#29 = VECTOR ( 'NONE', #203, 1000.000000000000000 ) ;
#30 = CARTESIAN_POINT ( 'NONE',  ( -42.79999999999999005, -22.99999999999998224, 0.8000000000000000444 ) ) ;
#31 = DIRECTION ( 'NONE',  ( 8.941873587509322595E-17, -1.000000000000000000, 0.000000000000000000 ) ) ;
#32 = SHAPE_DEFINITION_REPRESENTATION ( #238, #276 ) ;
#33 = AXIS2_PLACEMENT_3D ( 'NONE', #36, #110, #173 ) ;
#34 = COLOUR_RGB ( '',0.8431372549019607865, 0.8000000000000000444, 1.000000000000000000 ) ;
#35 = PRODUCT_DEFINITION ( 'UNKNOWN', '', #89, #223 ) ;
#36 = CARTESIAN_POINT ( 'NONE',  ( -38.79999999999999005, -23.00000000000001066, 0.8000000000000000444 ) ) ;
#37 = EDGE_LOOP ( 'NONE', ( #289, #120, #266, #115 ) ) ;
#38 = AXIS2_PLACEMENT_3D ( 'NONE', #72, #31, #339 ) ;
#39 = DIRECTION ( 'NONE',  ( 1.000000000000000000, 1.788374717501864519E-16, -0.000000000000000000 ) ) ;
#40 = ORIENTED_EDGE ( 'NONE', *, *, #103, .F. ) ;
#41 = CARTESIAN_POINT ( 'NONE',  ( 38.79999999999997584, -26.99999999999999645, 0.8000000000000000444 ) ) ;
#42 = ORIENTED_EDGE ( 'NONE', *, *, #130, .F. ) ;
#43 = CARTESIAN_POINT ( 'NONE',  ( -38.79999999999999005, 22.99999999999999645, 0.8000000000000000444 ) ) ;
#44 =( GEOMETRIC_REPRESENTATION_CONTEXT ( 3 ) GLOBAL_UNCERTAINTY_ASSIGNED_CONTEXT ( ( #139 ) ) GLOBAL_UNIT_ASSIGNED_CONTEXT ( ( #293, #12, #46 ) ) REPRESENTATION_CONTEXT ( 'NONE', 'WORKASPACE' ) );
#45 = VERTEX_POINT ( 'NONE', #114 ) ;
#46 =( NAMED_UNIT ( * ) SI_UNIT ( $, .STERADIAN. ) SOLID_ANGLE_UNIT ( ) );
#47 = ORIENTED_EDGE ( 'NONE', *, *, #135, .F. ) ;
#48 = LINE ( 'NONE', #157, #16 ) ;
#49 = ORIENTED_EDGE ( 'NONE', *, *, #221, .T. ) ;
#50 = LINE ( 'NONE', #192, #240 ) ;
#51 = AXIS2_PLACEMENT_3D ( 'NONE', #74, #188, #295 ) ;
#52 =( GEOMETRIC_REPRESENTATION_CONTEXT ( 3 ) GLOBAL_UNCERTAINTY_ASSIGNED_CONTEXT ( ( #8 ) ) GLOBAL_UNIT_ASSIGNED_CONTEXT ( ( #6, #302, #83 ) ) REPRESENTATION_CONTEXT ( 'NONE', 'WORKASPACE' ) );
#53 = CARTESIAN_POINT ( 'NONE',  ( 38.80000000000000426, -22.99999999999999645, 0.000000000000000000 ) ) ;
#54 = DIRECTION ( 'NONE',  ( -0.000000000000000000, -1.000000000000000000, -0.000000000000000000 ) ) ;
#55 = CARTESIAN_POINT ( 'NONE',  ( -42.79999999999999005, -22.99999999999998224, 0.000000000000000000 ) ) ;
#56 = DIRECTION ( 'NONE',  ( -0.000000000000000000, -0.000000000000000000, -1.000000000000000000 ) ) ;
#57 = DIRECTION ( 'NONE',  ( 0.000000000000000000, 0.000000000000000000, 1.000000000000000000 ) ) ;
#58 = APPLICATION_PROTOCOL_DEFINITION ( 'draft international standard', 'automotive_design', 1998, #125 ) ;
#59 = CIRCLE ( 'NONE', #143, 4.000000000000003553 ) ;
#60 = CARTESIAN_POINT ( 'NONE',  ( 38.79999999999997584, -26.99999999999999645, 0.8000000000000000444 ) ) ;
#61 = VERTEX_POINT ( 'NONE', #123 ) ;
#62 = CIRCLE ( 'NONE', #160, 4.000000000000003553 ) ;
#63 = VERTEX_POINT ( 'NONE', #207 ) ;
#64 = DIRECTION ( 'NONE',  ( -1.788374717501864519E-16, 1.000000000000000000, 0.000000000000000000 ) ) ;
#65 = LINE ( 'NONE', #313, #170 ) ;
#66 = ADVANCED_FACE ( 'NONE', ( #318 ), #334, .F. ) ;
#67 = DIRECTION ( 'NONE',  ( 1.000000000000000000, 1.788374717501864519E-16, -0.000000000000000000 ) ) ;
#68 = AXIS2_PLACEMENT_3D ( 'NONE', #121, #23, #292 ) ;
#69 = ORIENTED_EDGE ( 'NONE', *, *, #270, .T. ) ;
#70 = CARTESIAN_POINT ( 'NONE',  ( -42.79999999999999005, 22.99999999999996803, 0.8000000000000000444 ) ) ;
#71 = PRESENTATION_STYLE_ASSIGNMENT (( #73 ) ) ;
#72 = CARTESIAN_POINT ( 'NONE',  ( 38.79999999999997584, 27.00000000000000355, 0.8000000000000000444 ) ) ;
#73 = SURFACE_STYLE_USAGE ( .BOTH. , #335 ) ;
#74 = CARTESIAN_POINT ( 'NONE',  ( -38.79999999999999005, 22.99999999999999645, 0.000000000000000000 ) ) ;
#75 = CIRCLE ( 'NONE', #111, 4.000000000000003553 ) ;
#76 = DIRECTION ( 'NONE',  ( -1.000000000000000000, 0.000000000000000000, 0.000000000000000000 ) ) ;
#77 = CARTESIAN_POINT ( 'NONE',  ( -38.79999999999999005, 22.99999999999999645, 0.8000000000000000444 ) ) ;
#78 = DIRECTION ( 'NONE',  ( -1.000000000000000000, 0.000000000000000000, 0.000000000000000000 ) ) ;
#79 = AXIS2_PLACEMENT_3D ( 'NONE', #95, #64, #310 ) ;
#80 = SURFACE_STYLE_USAGE ( .BOTH. , #327 ) ;
#81 = LINE ( 'NONE', #60, #142 ) ;
#82 = SURFACE_STYLE_FILL_AREA ( #306 ) ;
#83 =( NAMED_UNIT ( * ) SI_UNIT ( $, .STERADIAN. ) SOLID_ANGLE_UNIT ( ) );
#84 = VECTOR ( 'NONE', #214, 1000.000000000000000 ) ;
#85 = CARTESIAN_POINT ( 'NONE',  ( -38.79999999999999005, -23.00000000000001066, 0.000000000000000000 ) ) ;
#86 = EDGE_LOOP ( 'NONE', ( #94, #287, #69, #49, #262, #180, #197, #308 ) ) ;
#87 = ORIENTED_EDGE ( 'NONE', *, *, #98, .T. ) ;
#88 = LINE ( 'NONE', #316, #304 ) ;
#89 = PRODUCT_DEFINITION_FORMATION_WITH_SPECIFIED_SOURCE ( 'ANY', '', #267, .NOT_KNOWN. ) ;
#90 = EDGE_LOOP ( 'NONE', ( #11, #42, #184, #254 ) ) ;
#91 = PRODUCT_RELATED_PRODUCT_CATEGORY ( 'part', '', ( #267 ) ) ;
#92 = DIRECTION ( 'NONE',  ( 0.000000000000000000, 0.000000000000000000, 1.000000000000000000 ) ) ;
#93 = DIRECTION ( 'NONE',  ( -1.000000000000000000, -8.941873587509322595E-17, 0.000000000000000000 ) ) ;
#94 = ORIENTED_EDGE ( 'NONE', *, *, #108, .T. ) ;
#95 = CARTESIAN_POINT ( 'NONE',  ( 38.79999999999997584, -26.99999999999999645, 0.8000000000000000444 ) ) ;
#96 = VECTOR ( 'NONE', #288, 1000.000000000000000 ) ;
#97 = DIRECTION ( 'NONE',  ( 0.000000000000000000, 0.000000000000000000, 1.000000000000000000 ) ) ;
#98 = EDGE_CURVE ( 'NONE', #231, #22, #227, .T. ) ;
#99 = ORIENTED_EDGE ( 'NONE', *, *, #285, .T. ) ;
#100 = CARTESIAN_POINT ( 'NONE',  ( -42.79999999999999005, -22.99999999999998224, 0.8000000000000000444 ) ) ;
#101 = CARTESIAN_POINT ( 'NONE',  ( 38.79999999999997584, 27.00000000000000355, 0.8000000000000000444 ) ) ;
#102 = DIRECTION ( 'NONE',  ( 0.000000000000000000, 0.000000000000000000, -1.000000000000000000 ) ) ;
#103 = EDGE_CURVE ( 'NONE', #202, #19, #88, .T. ) ;
#104 = CARTESIAN_POINT ( 'NONE',  ( 38.79999999999997584, -26.99999999999999645, 0.8000000000000000444 ) ) ;
#105 = CARTESIAN_POINT ( 'NONE',  ( 38.80000000000000426, -22.99999999999999645, 0.8000000000000000444 ) ) ;
#106 = AXIS2_PLACEMENT_3D ( 'NONE', #205, #116, #230 ) ;
#107 = FILL_AREA_STYLE_COLOUR ( '', #34 ) ;
#108 = EDGE_CURVE ( 'NONE', #61, #63, #62, .T. ) ;
#109 = CARTESIAN_POINT ( 'NONE',  ( -38.79999999999999005, -23.00000000000001066, 0.8000000000000000444 ) ) ;
#110 = DIRECTION ( 'NONE',  ( -0.000000000000000000, -0.000000000000000000, -1.000000000000000000 ) ) ;
#111 = AXIS2_PLACEMENT_3D ( 'NONE', #105, #216, #241 ) ;
#112 = ORIENTED_EDGE ( 'NONE', *, *, #246, .T. ) ;
#113 = EDGE_LOOP ( 'NONE', ( #14, #47, #249, #235, #224, #26, #140, #233 ) ) ;
#114 = CARTESIAN_POINT ( 'NONE',  ( 42.80000000000000426, -22.99999999999996803, 0.000000000000000000 ) ) ;
#115 = ORIENTED_EDGE ( 'NONE', *, *, #103, .T. ) ;
#116 = DIRECTION ( 'NONE',  ( -0.000000000000000000, -0.000000000000000000, -1.000000000000000000 ) ) ;
#117 = MECHANICAL_DESIGN_GEOMETRIC_PRESENTATION_REPRESENTATION (  '', ( #250 ), #44 ) ;
#118 = ORIENTED_EDGE ( 'NONE', *, *, #278, .T. ) ;
#119 = LINE ( 'NONE', #41, #215 ) ;
#120 = ORIENTED_EDGE ( 'NONE', *, *, #183, .F. ) ;
#121 = CARTESIAN_POINT ( 'NONE',  ( 38.80000000000000426, -22.99999999999999645, 0.8000000000000000444 ) ) ;
#122 = CARTESIAN_POINT ( 'NONE',  ( 38.80000000000000426, 23.00000000000000355, 0.8000000000000000444 ) ) ;
#123 = CARTESIAN_POINT ( 'NONE',  ( -42.79999999999999005, -22.99999999999998224, 0.8000000000000000444 ) ) ;
#124 = EDGE_CURVE ( 'NONE', #63, #211, #119, .T. ) ;
#125 = APPLICATION_CONTEXT ( 'automotive_design' ) ;
#126 = ORIENTED_EDGE ( 'NONE', *, *, #278, .F. ) ;
#127 = PLANE ( 'NONE',  #196 ) ;
#128 = VERTEX_POINT ( 'NONE', #179 ) ;
#129 = CARTESIAN_POINT ( 'NONE',  ( 42.80000000000000426, -22.99999999999996803, 0.000000000000000000 ) ) ;
#130 = EDGE_CURVE ( 'NONE', #149, #176, #286, .T. ) ;
#131 = CARTESIAN_POINT ( 'NONE',  ( -38.79999999999999005, -23.00000000000001066, 0.000000000000000000 ) ) ;
#132 = DIRECTION ( 'NONE',  ( -0.000000000000000000, -0.000000000000000000, -1.000000000000000000 ) ) ;
#133 = FACE_OUTER_BOUND ( 'NONE', #113, .T. ) ;
#134 = FACE_OUTER_BOUND ( 'NONE', #206, .T. ) ;
#135 = EDGE_CURVE ( 'NONE', #176, #253, #153, .T. ) ;
#136 = VECTOR ( 'NONE', #93, 1000.000000000000000 ) ;
#137 = EDGE_CURVE ( 'NONE', #209, #149, #263, .T. ) ;
#138 = CYLINDRICAL_SURFACE ( 'NONE', #33, 4.000000000000003553 ) ;
#139 = UNCERTAINTY_MEASURE_WITH_UNIT (LENGTH_MEASURE( 1.000000000000000082E-05 ), #293, 'distance_accuracy_value', 'NONE');
#140 = ORIENTED_EDGE ( 'NONE', *, *, #305, .F. ) ;
#141 = DIRECTION ( 'NONE',  ( -1.000000000000000000, 0.000000000000000000, 0.000000000000000000 ) ) ;
#142 = VECTOR ( 'NONE', #248, 1000.000000000000000 ) ;
#143 = AXIS2_PLACEMENT_3D ( 'NONE', #187, #269, #217 ) ;
#144 = ORIENTED_EDGE ( 'NONE', *, *, #285, .F. ) ;
#145 = LINE ( 'NONE', #257, #331 ) ;
#146 = ORIENTED_EDGE ( 'NONE', *, *, #317, .F. ) ;
#147 = DIRECTION ( 'NONE',  ( -0.000000000000000000, -1.000000000000000000, -0.000000000000000000 ) ) ;
#148 = EDGE_CURVE ( 'NONE', #63, #228, #145, .T. ) ;
#149 = VERTEX_POINT ( 'NONE', #210 ) ;
#150 = DIRECTION ( 'NONE',  ( 0.000000000000000000, 0.000000000000000000, 1.000000000000000000 ) ) ;
#151 = AXIS2_PLACEMENT_3D ( 'NONE', #122, #97, #15 ) ;
#152 = ORIENTED_EDGE ( 'NONE', *, *, #242, .F. ) ;
#153 = LINE ( 'NONE', #185, #222 ) ;
#154 = APPLICATION_CONTEXT ( 'automotive_design' ) ;
#155 = ORIENTED_EDGE ( 'NONE', *, *, #124, .F. ) ;
#156 = ADVANCED_FACE ( 'NONE', ( #18 ), #255, .T. ) ;
#157 = CARTESIAN_POINT ( 'NONE',  ( 38.79999999999997584, -26.99999999999999645, 0.000000000000000000 ) ) ;
#158 = FILL_AREA_STYLE ('',( #24 ) ) ;
#159 = DIRECTION ( 'NONE',  ( 0.000000000000000000, 1.000000000000000000, 0.000000000000000000 ) ) ;
#160 = AXIS2_PLACEMENT_3D ( 'NONE', #177, #92, #282 ) ;
#161 = PRESENTATION_LAYER_ASSIGNMENT (  '', '', ( #281 ) ) ;
#162 = DIRECTION ( 'NONE',  ( 0.000000000000000000, 0.000000000000000000, 1.000000000000000000 ) ) ;
#163 = EDGE_CURVE ( 'NONE', #228, #280, #48, .T. ) ;
#164 = LINE ( 'NONE', #101, #84 ) ;
#165 = LINE ( 'NONE', #30, #166 ) ;
#166 = VECTOR ( 'NONE', #132, 1000.000000000000000 ) ;
#167 = CARTESIAN_POINT ( 'NONE',  ( -38.79999999999996163, -27.00000000000001066, 0.000000000000000000 ) ) ;
#168 = EDGE_CURVE ( 'NONE', #128, #209, #261, .T. ) ;
#169 = PRODUCT_CONTEXT ( 'NONE', #125, 'mechanical' ) ;
#170 = VECTOR ( 'NONE', #330, 1000.000000000000000 ) ;
#171 = MECHANICAL_DESIGN_GEOMETRIC_PRESENTATION_REPRESENTATION (  '', ( #281 ), #52 ) ;
#172 = ADVANCED_FACE ( 'NONE', ( #21 ), #332, .T. ) ;
#173 = DIRECTION ( 'NONE',  ( -1.000000000000000000, 0.000000000000000000, 0.000000000000000000 ) ) ;
#174 = ORIENTED_EDGE ( 'NONE', *, *, #135, .T. ) ;
#175 = AXIS2_PLACEMENT_3D ( 'NONE', #131, #236, #239 ) ;
#176 = VERTEX_POINT ( 'NONE', #324 ) ;
#177 = CARTESIAN_POINT ( 'NONE',  ( -38.79999999999999005, -23.00000000000001066, 0.8000000000000000444 ) ) ;
#178 = ORIENTED_EDGE ( 'NONE', *, *, #270, .F. ) ;
#179 = CARTESIAN_POINT ( 'NONE',  ( 38.79999999999997584, 27.00000000000000355, 0.8000000000000000444 ) ) ;
#180 = ORIENTED_EDGE ( 'NONE', *, *, #168, .T. ) ;
#181 = CARTESIAN_POINT ( 'NONE',  ( 38.79999999999997584, 27.00000000000000355, 0.8000000000000000444 ) ) ;
#182 = COLOUR_RGB ( '',0.8431372549019607865, 0.8000000000000000444, 1.000000000000000000 ) ;
#183 = EDGE_CURVE ( 'NONE', #128, #231, #164, .T. ) ;
#184 = ORIENTED_EDGE ( 'NONE', *, *, #137, .F. ) ;
#185 = CARTESIAN_POINT ( 'NONE',  ( -42.79999999999999005, -22.99999999999998224, 0.000000000000000000 ) ) ;
#186 = ORIENTED_EDGE ( 'NONE', *, *, #20, .F. ) ;
#187 = CARTESIAN_POINT ( 'NONE',  ( 38.80000000000000426, 23.00000000000000355, 0.000000000000000000 ) ) ;
#188 = DIRECTION ( 'NONE',  ( 0.000000000000000000, 0.000000000000000000, 1.000000000000000000 ) ) ;
#189 = VECTOR ( 'NONE', #25, 1000.000000000000000 ) ;
#190 = CYLINDRICAL_SURFACE ( 'NONE', #315, 4.000000000000003553 ) ;
#191 = LINE ( 'NONE', #28, #272 ) ;
#192 = CARTESIAN_POINT ( 'NONE',  ( 42.80000000000000426, -22.99999999999996803, 0.8000000000000000444 ) ) ;
#193 = ADVANCED_FACE ( 'NONE', ( #218 ), #341, .F. ) ;
#194 = DIRECTION ( 'NONE',  ( 1.000000000000000000, 0.000000000000000000, 0.000000000000000000 ) ) ;
#195 = PLANE ( 'NONE',  #336 ) ;
#196 = AXIS2_PLACEMENT_3D ( 'NONE', #1, #78, #27 ) ;
#197 = ORIENTED_EDGE ( 'NONE', *, *, #137, .T. ) ;
#198 = ORIENTED_EDGE ( 'NONE', *, *, #312, .T. ) ;
#199 = ADVANCED_FACE ( 'NONE', ( #271 ), #127, .F. ) ;
#200 = AXIS2_PLACEMENT_3D ( 'NONE', #100, #342, #102 ) ;
#201 = DIRECTION ( 'NONE',  ( 1.000000000000000000, 0.000000000000000000, 0.000000000000000000 ) ) ;
#202 = VERTEX_POINT ( 'NONE', #321 ) ;
#203 = DIRECTION ( 'NONE',  ( -0.000000000000000000, -0.000000000000000000, -1.000000000000000000 ) ) ;
#204 = ORIENTED_EDGE ( 'NONE', *, *, #183, .T. ) ;
#205 = CARTESIAN_POINT ( 'NONE',  ( 38.80000000000000426, 23.00000000000000355, 0.8000000000000000444 ) ) ;
#206 = EDGE_LOOP ( 'NONE', ( #198, #309, #311, #99 ) ) ;
#207 = CARTESIAN_POINT ( 'NONE',  ( -38.79999999999996163, -27.00000000000001066, 0.8000000000000000444 ) ) ;
#208 = CIRCLE ( 'NONE', #244, 4.000000000000003553 ) ;
#209 = VERTEX_POINT ( 'NONE', #299 ) ;
#210 = CARTESIAN_POINT ( 'NONE',  ( -42.79999999999999005, 22.99999999999996803, 0.8000000000000000444 ) ) ;
#211 = VERTEX_POINT ( 'NONE', #104 ) ;
#212 = CARTESIAN_POINT ( 'NONE',  ( 42.80000000000000426, -22.99999999999996803, 0.8000000000000000444 ) ) ;
#213 = EDGE_CURVE ( 'NONE', #19, #231, #59, .T. ) ;
#214 = DIRECTION ( 'NONE',  ( -0.000000000000000000, -0.000000000000000000, -1.000000000000000000 ) ) ;
#215 = VECTOR ( 'NONE', #39, 1000.000000000000000 ) ;
#216 = DIRECTION ( 'NONE',  ( 0.000000000000000000, 0.000000000000000000, 1.000000000000000000 ) ) ;
#217 = DIRECTION ( 'NONE',  ( 1.000000000000000000, 0.000000000000000000, 0.000000000000000000 ) ) ;
#218 = FACE_OUTER_BOUND ( 'NONE', #260, .T. ) ;
#219 = CLOSED_SHELL ( 'NONE', ( #322, #66, #172, #199, #156, #193, #225, #265, #340, #252 ) ) ;
#220 = DIRECTION ( 'NONE',  ( -1.000000000000000000, 0.000000000000000000, 0.000000000000000000 ) ) ;
#221 = EDGE_CURVE ( 'NONE', #10, #202, #50, .T. ) ;
#222 = VECTOR ( 'NONE', #147, 1000.000000000000000 ) ;
#223 = PRODUCT_DEFINITION_CONTEXT ( 'detailed design', #154, 'design' ) ;
#224 = ORIENTED_EDGE ( 'NONE', *, *, #213, .F. ) ;
#225 = ADVANCED_FACE ( 'NONE', ( #297 ), #190, .T. ) ;
#226 = ORIENTED_EDGE ( 'NONE', *, *, #163, .T. ) ;
#227 = LINE ( 'NONE', #284, #136 ) ;
#228 = VERTEX_POINT ( 'NONE', #167 ) ;
#229 =( GEOMETRIC_REPRESENTATION_CONTEXT ( 3 ) GLOBAL_UNCERTAINTY_ASSIGNED_CONTEXT ( ( #307 ) ) GLOBAL_UNIT_ASSIGNED_CONTEXT ( ( #5, #251, #326 ) ) REPRESENTATION_CONTEXT ( 'NONE', 'WORKASPACE' ) );
#230 = DIRECTION ( 'NONE',  ( -1.000000000000000000, 0.000000000000000000, 0.000000000000000000 ) ) ;
#231 = VERTEX_POINT ( 'NONE', #298 ) ;
#232 = CARTESIAN_POINT ( 'NONE',  ( 42.80000000000000426, -22.99999999999996803, 0.8000000000000000444 ) ) ;
#233 = ORIENTED_EDGE ( 'NONE', *, *, #163, .F. ) ;
#234 = DIRECTION ( 'NONE',  ( -0.000000000000000000, -0.000000000000000000, -1.000000000000000000 ) ) ;
#235 = ORIENTED_EDGE ( 'NONE', *, *, #98, .F. ) ;
#236 = DIRECTION ( 'NONE',  ( -0.000000000000000000, 0.000000000000000000, -1.000000000000000000 ) ) ;
#237 = LINE ( 'NONE', #212, #301 ) ;
#238 = PRODUCT_DEFINITION_SHAPE ( 'NONE', 'NONE',  #35 ) ;
#239 = DIRECTION ( 'NONE',  ( -1.000000000000000000, 0.000000000000000000, 0.000000000000000000 ) ) ;
#240 = VECTOR ( 'NONE', #159, 1000.000000000000000 ) ;
#241 = DIRECTION ( 'NONE',  ( 1.000000000000000000, 0.000000000000000000, 0.000000000000000000 ) ) ;
#242 = EDGE_CURVE ( 'NONE', #149, #61, #191, .T. ) ;
#243 = FACE_OUTER_BOUND ( 'NONE', #314, .T. ) ;
#244 = AXIS2_PLACEMENT_3D ( 'NONE', #85, #57, #141 ) ;
#245 = FACE_OUTER_BOUND ( 'NONE', #86, .T. ) ;
#246 = EDGE_CURVE ( 'NONE', #45, #19, #264, .T. ) ;
#247 = PRESENTATION_STYLE_ASSIGNMENT (( #80 ) ) ;
#248 = DIRECTION ( 'NONE',  ( -0.000000000000000000, -0.000000000000000000, -1.000000000000000000 ) ) ;
#249 = ORIENTED_EDGE ( 'NONE', *, *, #303, .F. ) ;
#250 = STYLED_ITEM ( 'NONE', ( #71 ), #4 ) ;
#251 =( NAMED_UNIT ( * ) PLANE_ANGLE_UNIT ( ) SI_UNIT ( $, .RADIAN. ) );
#252 = ADVANCED_FACE ( 'NONE', ( #133 ), #273, .T. ) ;
#253 = VERTEX_POINT ( 'NONE', #55 ) ;
#254 = ORIENTED_EDGE ( 'NONE', *, *, #20, .T. ) ;
#255 = CYLINDRICAL_SURFACE ( 'NONE', #106, 4.000000000000003553 ) ;
#256 = CIRCLE ( 'NONE', #151, 4.000000000000003553 ) ;
#257 = CARTESIAN_POINT ( 'NONE',  ( -38.79999999999996163, -27.00000000000001066, 0.8000000000000000444 ) ) ;
#258 = ORIENTED_EDGE ( 'NONE', *, *, #148, .T. ) ;
#259 = CARTESIAN_POINT ( 'NONE',  ( 42.80000000000000426, 22.99999999999997513, 0.000000000000000000 ) ) ;
#260 = EDGE_LOOP ( 'NONE', ( #87, #186, #333, #204 ) ) ;
#261 = LINE ( 'NONE', #181, #96 ) ;
#262 = ORIENTED_EDGE ( 'NONE', *, *, #13, .T. ) ;
#263 = CIRCLE ( 'NONE', #279, 4.000000000000003553 ) ;
#264 = LINE ( 'NONE', #129, #189 ) ;
#265 = ADVANCED_FACE ( 'NONE', ( #243 ), #2, .F. ) ;
#266 = ORIENTED_EDGE ( 'NONE', *, *, #13, .F. ) ;
#267 = PRODUCT ( '396ISO1EM1', '396ISO1EM1', '', ( #169 ) ) ;
#268 = DIRECTION ( 'NONE',  ( 1.000000000000000000, 0.000000000000000000, 0.000000000000000000 ) ) ;
#269 = DIRECTION ( 'NONE',  ( 0.000000000000000000, 0.000000000000000000, 1.000000000000000000 ) ) ;
#270 = EDGE_CURVE ( 'NONE', #211, #10, #75, .T. ) ;
#271 = FACE_OUTER_BOUND ( 'NONE', #17, .T. ) ;
#272 = VECTOR ( 'NONE', #54, 1000.000000000000000 ) ;
#273 = PLANE ( 'NONE',  #175 ) ;
#274 = APPLICATION_PROTOCOL_DEFINITION ( 'draft international standard', 'automotive_design', 1998, #154 ) ;
#275 = CARTESIAN_POINT ( 'NONE',  ( 0.000000000000000000, 0.000000000000000000, 0.000000000000000000 ) ) ;
#276 = ADVANCED_BREP_SHAPE_REPRESENTATION ( '396ISO1EM1', ( #4, #296 ), #229 ) ;
#277 = ORIENTED_EDGE ( 'NONE', *, *, #317, .T. ) ;
#278 = EDGE_CURVE ( 'NONE', #10, #45, #237, .T. ) ;
#279 = AXIS2_PLACEMENT_3D ( 'NONE', #43, #150, #201 ) ;
#280 = VERTEX_POINT ( 'NONE', #323 ) ;
#281 = STYLED_ITEM ( 'NONE', ( #247 ), #276 ) ;
#282 = DIRECTION ( 'NONE',  ( -1.000000000000000000, 0.000000000000000000, 0.000000000000000000 ) ) ;
#283 = ORIENTED_EDGE ( 'NONE', *, *, #221, .F. ) ;
#284 = CARTESIAN_POINT ( 'NONE',  ( 38.79999999999997584, 27.00000000000000355, 0.000000000000000000 ) ) ;
#285 = EDGE_CURVE ( 'NONE', #61, #253, #165, .T. ) ;
#286 = LINE ( 'NONE', #70, #29 ) ;
#287 = ORIENTED_EDGE ( 'NONE', *, *, #124, .T. ) ;
#288 = DIRECTION ( 'NONE',  ( -1.000000000000000000, -8.941873587509322595E-17, 0.000000000000000000 ) ) ;
#289 = ORIENTED_EDGE ( 'NONE', *, *, #213, .T. ) ;
#290 = DIRECTION ( 'NONE',  ( -0.000000000000000000, -0.000000000000000000, -1.000000000000000000 ) ) ;
#291 = EDGE_LOOP ( 'NONE', ( #328, #126, #178, #277 ) ) ;
#292 = DIRECTION ( 'NONE',  ( -1.000000000000000000, 0.000000000000000000, 0.000000000000000000 ) ) ;
#293 =( LENGTH_UNIT ( ) NAMED_UNIT ( * ) SI_UNIT ( .MILLI., .METRE. ) );
#294 = CIRCLE ( 'NONE', #300, 4.000000000000003553 ) ;
#295 = DIRECTION ( 'NONE',  ( 1.000000000000000000, 0.000000000000000000, 0.000000000000000000 ) ) ;
#296 = AXIS2_PLACEMENT_3D ( 'NONE', #275, #325, #194 ) ;
#297 = FACE_OUTER_BOUND ( 'NONE', #90, .T. ) ;
#298 = CARTESIAN_POINT ( 'NONE',  ( 38.79999999999997584, 27.00000000000000355, 0.000000000000000000 ) ) ;
#299 = CARTESIAN_POINT ( 'NONE',  ( -38.79999999999996163, 26.99999999999999645, 0.8000000000000000444 ) ) ;
#300 = AXIS2_PLACEMENT_3D ( 'NONE', #53, #162, #268 ) ;
#301 = VECTOR ( 'NONE', #320, 1000.000000000000000 ) ;
#302 =( NAMED_UNIT ( * ) PLANE_ANGLE_UNIT ( ) SI_UNIT ( $, .RADIAN. ) );
#303 = EDGE_CURVE ( 'NONE', #22, #176, #9, .T. ) ;
#304 = VECTOR ( 'NONE', #234, 1000.000000000000000 ) ;
#305 = EDGE_CURVE ( 'NONE', #280, #45, #294, .T. ) ;
#306 = FILL_AREA_STYLE ('',( #107 ) ) ;
#307 = UNCERTAINTY_MEASURE_WITH_UNIT (LENGTH_MEASURE( 1.000000000000000082E-05 ), #5, 'distance_accuracy_value', 'NONE');
#308 = ORIENTED_EDGE ( 'NONE', *, *, #242, .T. ) ;
#309 = ORIENTED_EDGE ( 'NONE', *, *, #148, .F. ) ;
#310 = DIRECTION ( 'NONE',  ( -1.000000000000000000, -1.788374717501864519E-16, 0.000000000000000000 ) ) ;
#311 = ORIENTED_EDGE ( 'NONE', *, *, #108, .F. ) ;
#312 = EDGE_CURVE ( 'NONE', #253, #228, #208, .T. ) ;
#313 = CARTESIAN_POINT ( 'NONE',  ( -38.79999999999996163, 26.99999999999999645, 0.8000000000000000444 ) ) ;
#314 = EDGE_LOOP ( 'NONE', ( #174, #144, #152, #329 ) ) ;
#315 = AXIS2_PLACEMENT_3D ( 'NONE', #77, #56, #76 ) ;
#316 = CARTESIAN_POINT ( 'NONE',  ( 42.80000000000000426, 22.99999999999997513, 0.8000000000000000444 ) ) ;
#317 = EDGE_CURVE ( 'NONE', #211, #280, #81, .T. ) ;
#318 = FACE_OUTER_BOUND ( 'NONE', #338, .T. ) ;
#319 = SURFACE_STYLE_FILL_AREA ( #158 ) ;
#320 = DIRECTION ( 'NONE',  ( -0.000000000000000000, -0.000000000000000000, -1.000000000000000000 ) ) ;
#321 = CARTESIAN_POINT ( 'NONE',  ( 42.80000000000000426, 22.99999999999997513, 0.8000000000000000444 ) ) ;
#322 = ADVANCED_FACE ( 'NONE', ( #134 ), #138, .T. ) ;
#323 = CARTESIAN_POINT ( 'NONE',  ( 38.79999999999997584, -26.99999999999999645, 0.000000000000000000 ) ) ;
#324 = CARTESIAN_POINT ( 'NONE',  ( -42.79999999999999005, 22.99999999999996803, 0.000000000000000000 ) ) ;
#325 = DIRECTION ( 'NONE',  ( 0.000000000000000000, 0.000000000000000000, 1.000000000000000000 ) ) ;
#326 =( NAMED_UNIT ( * ) SI_UNIT ( $, .STERADIAN. ) SOLID_ANGLE_UNIT ( ) );
#327 = SURFACE_SIDE_STYLE ('',( #82 ) ) ;
#328 = ORIENTED_EDGE ( 'NONE', *, *, #305, .T. ) ;
#329 = ORIENTED_EDGE ( 'NONE', *, *, #130, .T. ) ;
#330 = DIRECTION ( 'NONE',  ( -0.000000000000000000, -0.000000000000000000, -1.000000000000000000 ) ) ;
#331 = VECTOR ( 'NONE', #290, 1000.000000000000000 ) ;
#332 = CYLINDRICAL_SURFACE ( 'NONE', #68, 4.000000000000003553 ) ;
#333 = ORIENTED_EDGE ( 'NONE', *, *, #168, .F. ) ;
#334 = PLANE ( 'NONE',  #79 ) ;
#335 = SURFACE_SIDE_STYLE ('',( #319 ) ) ;
#336 = AXIS2_PLACEMENT_3D ( 'NONE', #109, #7, #220 ) ;
#337 = CARTESIAN_POINT ( 'NONE',  ( -38.79999999999996163, 26.99999999999999645, 0.000000000000000000 ) ) ;
#338 = EDGE_LOOP ( 'NONE', ( #226, #146, #155, #258 ) ) ;
#339 = DIRECTION ( 'NONE',  ( 1.000000000000000000, 8.941873587509322595E-17, 0.000000000000000000 ) ) ;
#340 = ADVANCED_FACE ( 'NONE', ( #245 ), #195, .F. ) ;
#341 = PLANE ( 'NONE',  #38 ) ;
#342 = DIRECTION ( 'NONE',  ( 1.000000000000000000, 0.000000000000000000, 0.000000000000000000 ) ) ;
ENDSEC;
END-ISO-10303-21;
