ISO-10303-21;
HEADER;
FILE_DESCRIPTION (( 'STEP AP214' ),
    '1' );
FILE_NAME ('396WD1MF1.STEP',
    '2021-07-30T07:13:23',
    ( '' ),
    ( '' ),
    'SwSTEP 2.0',
    'SolidWorks 2020',
    '' );
FILE_SCHEMA (( 'AUTOMOTIVE_DESIGN' ));
ENDSEC;

DATA;
#1 = EDGE_LOOP ( 'NONE', ( #175, #96, #219, #172, #151 ) ) ;
#2 = VERTEX_POINT ( 'NONE', #66 ) ;
#3 = CIRCLE ( 'NONE', #183, 2.499999999999998668 ) ;
#4 = ORIENTED_EDGE ( 'NONE', *, *, #140, .T. ) ;
#5 = SURFACE_STYLE_USAGE ( .BOTH. , #221 ) ;
#6 = ORIENTED_EDGE ( 'NONE', *, *, #176, .T. ) ;
#7 = ADVANCED_FACE ( 'NONE', ( #155 ), #62, .F. ) ;
#8 = DIRECTION ( 'NONE',  ( 0.9682458365518541443, 0.2500000000000002220, 0.000000000000000000 ) ) ;
#9 = CARTESIAN_POINT ( 'NONE',  ( -3.750000000000000444, 14.52368754827781849, 1.600000000000000089 ) ) ;
#10 = EDGE_CURVE ( 'NONE', #65, #24, #39, .T. ) ;
#11 = PLANE ( 'NONE',  #44 ) ;
#12 = EDGE_LOOP ( 'NONE', ( #52, #81, #271, #268, #154 ) ) ;
#13 = VECTOR ( 'NONE', #115, 1000.000000000000000 ) ;
#14 = CIRCLE ( 'NONE', #191, 10.00000000000000000 ) ;
#15 = DIRECTION ( 'NONE',  ( -0.000000000000000000, -0.000000000000000000, -1.000000000000000000 ) ) ;
#16 = CARTESIAN_POINT ( 'NONE',  ( -20.00000000000000000, 0.000000000000000000, 0.000000000000000000 ) ) ;
#17 = EDGE_CURVE ( 'NONE', #130, #47, #57, .T. ) ;
#18 = DIRECTION ( 'NONE',  ( -0.000000000000000000, -0.000000000000000000, -1.000000000000000000 ) ) ;
#19 = CARTESIAN_POINT ( 'NONE',  ( -25.00000000000000000, 0.000000000000000000, 1.600000000000000089 ) ) ;
#20 = CARTESIAN_POINT ( 'NONE',  ( -25.00000000000000000, 0.000000000000000000, 0.000000000000000000 ) ) ;
#21 = VECTOR ( 'NONE', #212, 1000.000000000000000 ) ;
#22 = STYLED_ITEM ( 'NONE', ( #126 ), #267 ) ;
#23 = APPLICATION_PROTOCOL_DEFINITION ( 'draft international standard', 'automotive_design', 1998, #55 ) ;
#24 = VERTEX_POINT ( 'NONE', #227 ) ;
#25 = PRODUCT_DEFINITION ( 'UNKNOWN', '', #238, #102 ) ;
#26 = VERTEX_POINT ( 'NONE', #182 ) ;
#27 = DIRECTION ( 'NONE',  ( -0.000000000000000000, -0.000000000000000000, -1.000000000000000000 ) ) ;
#28 = ORIENTED_EDGE ( 'NONE', *, *, #117, .F. ) ;
#29 = AXIS2_PLACEMENT_3D ( 'NONE', #258, #184, #86 ) ;
#30 = DIRECTION ( 'NONE',  ( 0.000000000000000000, 0.000000000000000000, 1.000000000000000000 ) ) ;
#31 = ORIENTED_EDGE ( 'NONE', *, *, #226, .F. ) ;
#32 = VERTEX_POINT ( 'NONE', #228 ) ;
#33 = DIRECTION ( 'NONE',  ( -1.000000000000000000, 0.000000000000000000, 0.000000000000000000 ) ) ;
#34 = ADVANCED_FACE ( 'NONE', ( #304 ), #37, .T. ) ;
#35 = CARTESIAN_POINT ( 'NONE',  ( -20.00000000000000000, 0.000000000000000000, 1.600000000000000089 ) ) ;
#36 = DIRECTION ( 'NONE',  ( -0.000000000000000000, -0.000000000000000000, -1.000000000000000000 ) ) ;
#37 = CYLINDRICAL_SURFACE ( 'NONE', #242, 15.00000000000000533 ) ;
#38 = AXIS2_PLACEMENT_3D ( 'NONE', #70, #41, #46 ) ;
#39 = LINE ( 'NONE', #88, #48 ) ;
#40 = ADVANCED_FACE ( 'NONE', ( #138 ), #158, .T. ) ;
#41 = DIRECTION ( 'NONE',  ( 0.000000000000000000, 0.000000000000000000, 1.000000000000000000 ) ) ;
#42 =( LENGTH_UNIT ( ) NAMED_UNIT ( * ) SI_UNIT ( .MILLI., .METRE. ) );
#43 = CARTESIAN_POINT ( 'NONE',  ( -3.750000000000000444, 14.52368754827781849, 1.600000000000000089 ) ) ;
#44 = AXIS2_PLACEMENT_3D ( 'NONE', #9, #225, #8 ) ;
#45 = DIRECTION ( 'NONE',  ( 0.000000000000000000, 0.000000000000000000, 1.000000000000000000 ) ) ;
#46 = DIRECTION ( 'NONE',  ( 1.000000000000000000, 0.000000000000000000, 0.000000000000000000 ) ) ;
#47 = VERTEX_POINT ( 'NONE', #132 ) ;
#48 = VECTOR ( 'NONE', #84, 1000.000000000000000 ) ;
#49 = DIRECTION ( 'NONE',  ( -0.000000000000000000, -0.000000000000000000, -1.000000000000000000 ) ) ;
#50 = EDGE_LOOP ( 'NONE', ( #105, #251 ) ) ;
#51 = CYLINDRICAL_SURFACE ( 'NONE', #59, 9.999999999999998224 ) ;
#52 = ORIENTED_EDGE ( 'NONE', *, *, #75, .F. ) ;
#53 = UNCERTAINTY_MEASURE_WITH_UNIT (LENGTH_MEASURE( 1.000000000000000082E-05 ), #241, 'distance_accuracy_value', 'NONE');
#54 =( NAMED_UNIT ( * ) SI_UNIT ( $, .STERADIAN. ) SOLID_ANGLE_UNIT ( ) );
#55 = APPLICATION_CONTEXT ( 'automotive_design' ) ;
#56 = ORIENTED_EDGE ( 'NONE', *, *, #165, .F. ) ;
#57 = CIRCLE ( 'NONE', #157, 2.499999999999998668 ) ;
#58 = PRESENTATION_LAYER_ASSIGNMENT (  '', '', ( #178 ) ) ;
#59 = AXIS2_PLACEMENT_3D ( 'NONE', #217, #27, #198 ) ;
#60 = ORIENTED_EDGE ( 'NONE', *, *, #95, .F. ) ;
#61 = CARTESIAN_POINT ( 'NONE',  ( -22.50000000000000355, -9.682458365518542109, 1.600000000000000089 ) ) ;
#62 = PLANE ( 'NONE',  #118 ) ;
#63 = ADVANCED_FACE ( 'NONE', ( #180 ), #11, .F. ) ;
#64 = MECHANICAL_DESIGN_GEOMETRIC_PRESENTATION_REPRESENTATION (  '', ( #22 ), #300 ) ;
#65 = VERTEX_POINT ( 'NONE', #61 ) ;
#66 = CARTESIAN_POINT ( 'NONE',  ( -22.50000000000000355, 3.061616997868381662E-16, 0.000000000000000000 ) ) ;
#67 = LINE ( 'NONE', #106, #113 ) ;
#68 = VECTOR ( 'NONE', #72, 1000.000000000000000 ) ;
#69 = SURFACE_SIDE_STYLE ('',( #262 ) ) ;
#70 = CARTESIAN_POINT ( 'NONE',  ( 0.000000000000000000, 0.000000000000000000, 1.600000000000000089 ) ) ;
#71 = DIRECTION ( 'NONE',  ( 0.000000000000000000, 0.000000000000000000, 1.000000000000000000 ) ) ;
#72 = DIRECTION ( 'NONE',  ( -0.9682458365518541443, -0.2500000000000002220, 0.000000000000000000 ) ) ;
#73 = AXIS2_PLACEMENT_3D ( 'NONE', #255, #303, #285 ) ;
#74 = CYLINDRICAL_SURFACE ( 'NONE', #152, 2.499999999999998668 ) ;
#75 = EDGE_CURVE ( 'NONE', #26, #296, #101, .T. ) ;
#76 = ORIENTED_EDGE ( 'NONE', *, *, #279, .T. ) ;
#77 = ORIENTED_EDGE ( 'NONE', *, *, #294, .T. ) ;
#78 = CARTESIAN_POINT ( 'NONE',  ( -22.50000000000000000, 9.682458365518542109, 1.600000000000000089 ) ) ;
#79 = EDGE_LOOP ( 'NONE', ( #220, #149, #298, #256 ) ) ;
#80 = EDGE_LOOP ( 'NONE', ( #278, #273, #193, #124 ) ) ;
#81 = ORIENTED_EDGE ( 'NONE', *, *, #91, .F. ) ;
#82 = FACE_OUTER_BOUND ( 'NONE', #79, .T. ) ;
#83 = DIRECTION ( 'NONE',  ( -0.9682458365518541443, -0.2500000000000002220, 0.000000000000000000 ) ) ;
#84 = DIRECTION ( 'NONE',  ( 0.9682458365518541443, -0.2500000000000002220, -0.000000000000000000 ) ) ;
#85 = CIRCLE ( 'NONE', #133, 10.00000000000000000 ) ;
#86 = DIRECTION ( 'NONE',  ( 1.000000000000000000, 0.000000000000000000, 0.000000000000000000 ) ) ;
#87 = EDGE_CURVE ( 'NONE', #129, #297, #85, .T. ) ;
#88 = CARTESIAN_POINT ( 'NONE',  ( -3.750000000000000444, -14.52368754827781849, 1.600000000000000089 ) ) ;
#89 = LINE ( 'NONE', #43, #21 ) ;
#90 = PRESENTATION_LAYER_ASSIGNMENT (  '', '', ( #22 ) ) ;
#91 = EDGE_CURVE ( 'NONE', #173, #26, #302, .T. ) ;
#92 = DIRECTION ( 'NONE',  ( -1.000000000000000000, 0.000000000000000000, 0.000000000000000000 ) ) ;
#93 = DIRECTION ( 'NONE',  ( 1.000000000000000000, 0.000000000000000000, 0.000000000000000000 ) ) ;
#94 = DIRECTION ( 'NONE',  ( 1.000000000000000000, 0.000000000000000000, -0.000000000000000000 ) ) ;
#95 = EDGE_CURVE ( 'NONE', #297, #169, #301, .T. ) ;
#96 = ORIENTED_EDGE ( 'NONE', *, *, #111, .T. ) ;
#97 =( NAMED_UNIT ( * ) SI_UNIT ( $, .STERADIAN. ) SOLID_ANGLE_UNIT ( ) );
#98 = VERTEX_POINT ( 'NONE', #114 ) ;
#99 = PRODUCT_CONTEXT ( 'NONE', #55, 'mechanical' ) ;
#100 = ORIENTED_EDGE ( 'NONE', *, *, #257, .T. ) ;
#101 = CIRCLE ( 'NONE', #29, 15.00000000000000533 ) ;
#102 = PRODUCT_DEFINITION_CONTEXT ( 'detailed design', #246, 'design' ) ;
#103 = DIRECTION ( 'NONE',  ( 0.000000000000000000, 0.000000000000000000, 1.000000000000000000 ) ) ;
#104 = ORIENTED_EDGE ( 'NONE', *, *, #211, .F. ) ;
#105 = ORIENTED_EDGE ( 'NONE', *, *, #17, .F. ) ;
#106 = CARTESIAN_POINT ( 'NONE',  ( -27.50000000000000000, 0.000000000000000000, 1.600000000000000089 ) ) ;
#107 = CIRCLE ( 'NONE', #224, 2.499999999999998668 ) ;
#108 = DIRECTION ( 'NONE',  ( 0.000000000000000000, 0.000000000000000000, 1.000000000000000000 ) ) ;
#109 = CARTESIAN_POINT ( 'NONE',  ( -20.00000000000000000, 0.000000000000000000, 1.600000000000000089 ) ) ;
#110 = DIRECTION ( 'NONE',  ( -0.9682458365518541443, 0.2500000000000002220, 0.000000000000000000 ) ) ;
#111 = EDGE_CURVE ( 'NONE', #98, #129, #185, .T. ) ;
#112 = CIRCLE ( 'NONE', #150, 10.00000000000000000 ) ;
#113 = VECTOR ( 'NONE', #202, 1000.000000000000000 ) ;
#114 = CARTESIAN_POINT ( 'NONE',  ( -3.750000000000000444, 14.52368754827781849, 1.600000000000000089 ) ) ;
#115 = DIRECTION ( 'NONE',  ( -0.000000000000000000, -0.000000000000000000, -1.000000000000000000 ) ) ;
#116 = SURFACE_STYLE_USAGE ( .BOTH. , #69 ) ;
#117 = EDGE_CURVE ( 'NONE', #2, #32, #3, .T. ) ;
#118 = AXIS2_PLACEMENT_3D ( 'NONE', #160, #259, #110 ) ;
#119 = DIRECTION ( 'NONE',  ( -0.000000000000000000, -0.000000000000000000, -1.000000000000000000 ) ) ;
#120 = LINE ( 'NONE', #236, #299 ) ;
#121 = FACE_OUTER_BOUND ( 'NONE', #269, .T. ) ;
#122 = VECTOR ( 'NONE', #306, 1000.000000000000000 ) ;
#123 = FILL_AREA_STYLE ('',( #216 ) ) ;
#124 = ORIENTED_EDGE ( 'NONE', *, *, #171, .T. ) ;
#125 = PRODUCT_RELATED_PRODUCT_CATEGORY ( 'part', '', ( #234 ) ) ;
#126 = PRESENTATION_STYLE_ASSIGNMENT (( #5 ) ) ;
#127 = ORIENTED_EDGE ( 'NONE', *, *, #111, .F. ) ;
#128 = CARTESIAN_POINT ( 'NONE',  ( -30.00000000000000000, 0.000000000000000000, 1.600000000000000089 ) ) ;
#129 = VERTEX_POINT ( 'NONE', #283 ) ;
#130 = VERTEX_POINT ( 'NONE', #305 ) ;
#131 = ORIENTED_EDGE ( 'NONE', *, *, #208, .T. ) ;
#132 = CARTESIAN_POINT ( 'NONE',  ( -22.50000000000000355, 3.061616997868381662E-16, 1.600000000000000089 ) ) ;
#133 = AXIS2_PLACEMENT_3D ( 'NONE', #109, #108, #284 ) ;
#134 = DIRECTION ( 'NONE',  ( 0.9682458365518541443, -0.2500000000000002220, -0.000000000000000000 ) ) ;
#135 = DIRECTION ( 'NONE',  ( 0.000000000000000000, 0.000000000000000000, 1.000000000000000000 ) ) ;
#136 = CARTESIAN_POINT ( 'NONE',  ( -3.750000000000000444, -14.52368754827781849, 0.000000000000000000 ) ) ;
#137 =( GEOMETRIC_REPRESENTATION_CONTEXT ( 3 ) GLOBAL_UNCERTAINTY_ASSIGNED_CONTEXT ( ( #274 ) ) GLOBAL_UNIT_ASSIGNED_CONTEXT ( ( #42, #310, #97 ) ) REPRESENTATION_CONTEXT ( 'NONE', 'WORKASPACE' ) );
#138 = FACE_OUTER_BOUND ( 'NONE', #200, .T. ) ;
#139 = DIRECTION ( 'NONE',  ( 0.000000000000000000, 0.000000000000000000, 1.000000000000000000 ) ) ;
#140 = EDGE_CURVE ( 'NONE', #47, #130, #260, .T. ) ;
#141 = CYLINDRICAL_SURFACE ( 'NONE', #170, 2.499999999999998668 ) ;
#142 = VECTOR ( 'NONE', #83, 1000.000000000000000 ) ;
#143 = CARTESIAN_POINT ( 'NONE',  ( -20.00000000000000000, 0.000000000000000000, 1.600000000000000089 ) ) ;
#144 = CARTESIAN_POINT ( 'NONE',  ( -3.750000000000000444, 14.52368754827781849, 0.000000000000000000 ) ) ;
#145 = EDGE_LOOP ( 'NONE', ( #100, #222 ) ) ;
#146 = EDGE_CURVE ( 'NONE', #130, #32, #67, .T. ) ;
#147 = APPLICATION_PROTOCOL_DEFINITION ( 'draft international standard', 'automotive_design', 1998, #246 ) ;
#148 = ORIENTED_EDGE ( 'NONE', *, *, #146, .T. ) ;
#149 = ORIENTED_EDGE ( 'NONE', *, *, #211, .T. ) ;
#150 = AXIS2_PLACEMENT_3D ( 'NONE', #143, #139, #214 ) ;
#151 = ORIENTED_EDGE ( 'NONE', *, *, #10, .T. ) ;
#152 = AXIS2_PLACEMENT_3D ( 'NONE', #167, #18, #265 ) ;
#153 = ADVANCED_FACE ( 'NONE', ( #82 ), #141, .F. ) ;
#154 = ORIENTED_EDGE ( 'NONE', *, *, #248, .F. ) ;
#155 = FACE_OUTER_BOUND ( 'NONE', #80, .T. ) ;
#156 = DIRECTION ( 'NONE',  ( 0.000000000000000000, 0.000000000000000000, 1.000000000000000000 ) ) ;
#157 = AXIS2_PLACEMENT_3D ( 'NONE', #205, #135, #280 ) ;
#158 = CYLINDRICAL_SURFACE ( 'NONE', #237, 9.999999999999998224 ) ;
#159 = DIRECTION ( 'NONE',  ( -1.000000000000000000, 0.000000000000000000, 0.000000000000000000 ) ) ;
#160 = CARTESIAN_POINT ( 'NONE',  ( -3.750000000000000444, -14.52368754827781849, 1.600000000000000089 ) ) ;
#161 = CARTESIAN_POINT ( 'NONE',  ( -22.50000000000000355, -9.682458365518542109, 0.000000000000000000 ) ) ;
#162 = EDGE_CURVE ( 'NONE', #24, #98, #250, .T. ) ;
#163 = DIRECTION ( 'NONE',  ( 1.000000000000000000, 0.000000000000000000, 0.000000000000000000 ) ) ;
#164 = PRESENTATION_STYLE_ASSIGNMENT (( #116 ) ) ;
#165 = EDGE_CURVE ( 'NONE', #297, #65, #112, .T. ) ;
#166 = CARTESIAN_POINT ( 'NONE',  ( -22.50000000000000000, 9.682458365518542109, 0.000000000000000000 ) ) ;
#167 = CARTESIAN_POINT ( 'NONE',  ( -25.00000000000000000, 0.000000000000000000, 1.600000000000000089 ) ) ;
#168 =( NAMED_UNIT ( * ) PLANE_ANGLE_UNIT ( ) SI_UNIT ( $, .RADIAN. ) );
#169 = VERTEX_POINT ( 'NONE', #190 ) ;
#170 = AXIS2_PLACEMENT_3D ( 'NONE', #19, #119, #92 ) ;
#171 = EDGE_CURVE ( 'NONE', #65, #173, #233, .T. ) ;
#172 = ORIENTED_EDGE ( 'NONE', *, *, #165, .T. ) ;
#173 = VERTEX_POINT ( 'NONE', #161 ) ;
#174 = UNCERTAINTY_MEASURE_WITH_UNIT (LENGTH_MEASURE( 1.000000000000000082E-05 ), #315, 'distance_accuracy_value', 'NONE');
#175 = ORIENTED_EDGE ( 'NONE', *, *, #162, .T. ) ;
#176 = EDGE_CURVE ( 'NONE', #169, #173, #231, .T. ) ;
#177 = CARTESIAN_POINT ( 'NONE',  ( 0.000000000000000000, 0.000000000000000000, 0.000000000000000000 ) ) ;
#178 = STYLED_ITEM ( 'NONE', ( #164 ), #266 ) ;
#179 = DIRECTION ( 'NONE',  ( 1.000000000000000000, 0.000000000000000000, 0.000000000000000000 ) ) ;
#180 = FACE_OUTER_BOUND ( 'NONE', #293, .T. ) ;
#181 = ADVANCED_FACE ( 'NONE', ( #209, #307 ), #312, .T. ) ;
#182 = CARTESIAN_POINT ( 'NONE',  ( -3.750000000000000444, -14.52368754827781849, 0.000000000000000000 ) ) ;
#183 = AXIS2_PLACEMENT_3D ( 'NONE', #207, #156, #179 ) ;
#184 = DIRECTION ( 'NONE',  ( 0.000000000000000000, 0.000000000000000000, 1.000000000000000000 ) ) ;
#185 = LINE ( 'NONE', #203, #142 ) ;
#186 = CARTESIAN_POINT ( 'NONE',  ( 0.000000000000000000, 0.000000000000000000, 0.000000000000000000 ) ) ;
#187 = DIRECTION ( 'NONE',  ( -0.000000000000000000, -0.000000000000000000, -1.000000000000000000 ) ) ;
#188 = LINE ( 'NONE', #288, #122 ) ;
#189 = PRODUCT_DEFINITION_SHAPE ( 'NONE', 'NONE',  #25 ) ;
#190 = CARTESIAN_POINT ( 'NONE',  ( -30.00000000000000000, 0.000000000000000000, 0.000000000000000000 ) ) ;
#191 = AXIS2_PLACEMENT_3D ( 'NONE', #213, #103, #276 ) ;
#192 = PLANE ( 'NONE',  #201 ) ;
#193 = ORIENTED_EDGE ( 'NONE', *, *, #10, .F. ) ;
#194 =( NAMED_UNIT ( * ) PLANE_ANGLE_UNIT ( ) SI_UNIT ( $, .RADIAN. ) );
#195 = ORIENTED_EDGE ( 'NONE', *, *, #87, .F. ) ;
#196 = SHAPE_DEFINITION_REPRESENTATION ( #189, #267 ) ;
#197 = VERTEX_POINT ( 'NONE', #166 ) ;
#198 = DIRECTION ( 'NONE',  ( -1.000000000000000000, 0.000000000000000000, 0.000000000000000000 ) ) ;
#199 = ORIENTED_EDGE ( 'NONE', *, *, #162, .F. ) ;
#200 = EDGE_LOOP ( 'NONE', ( #56, #218, #6, #281 ) ) ;
#201 = AXIS2_PLACEMENT_3D ( 'NONE', #186, #45, #94 ) ;
#202 = DIRECTION ( 'NONE',  ( -0.000000000000000000, -0.000000000000000000, -1.000000000000000000 ) ) ;
#203 = CARTESIAN_POINT ( 'NONE',  ( -3.750000000000000444, 14.52368754827781849, 1.600000000000000089 ) ) ;
#204 = CARTESIAN_POINT ( 'NONE',  ( -30.00000000000000000, 0.000000000000000000, 1.600000000000000089 ) ) ;
#205 = CARTESIAN_POINT ( 'NONE',  ( -25.00000000000000000, 0.000000000000000000, 1.600000000000000089 ) ) ;
#206 = VECTOR ( 'NONE', #134, 1000.000000000000000 ) ;
#207 = CARTESIAN_POINT ( 'NONE',  ( -25.00000000000000000, 0.000000000000000000, 0.000000000000000000 ) ) ;
#208 = EDGE_CURVE ( 'NONE', #24, #26, #188, .T. ) ;
#209 = FACE_OUTER_BOUND ( 'NONE', #1, .T. ) ;
#210 = FACE_BOUND ( 'NONE', #145, .T. ) ;
#211 = EDGE_CURVE ( 'NONE', #47, #2, #120, .T. ) ;
#212 = DIRECTION ( 'NONE',  ( -0.000000000000000000, -0.000000000000000000, -1.000000000000000000 ) ) ;
#213 = CARTESIAN_POINT ( 'NONE',  ( -20.00000000000000000, 0.000000000000000000, 0.000000000000000000 ) ) ;
#214 = DIRECTION ( 'NONE',  ( 1.000000000000000000, 0.000000000000000000, 0.000000000000000000 ) ) ;
#215 = AXIS2_PLACEMENT_3D ( 'NONE', #289, #240, #261 ) ;
#216 = FILL_AREA_STYLE_COLOUR ( '', #277 ) ;
#217 = CARTESIAN_POINT ( 'NONE',  ( -20.00000000000000000, 0.000000000000000000, 1.600000000000000089 ) ) ;
#218 = ORIENTED_EDGE ( 'NONE', *, *, #95, .T. ) ;
#219 = ORIENTED_EDGE ( 'NONE', *, *, #87, .T. ) ;
#220 = ORIENTED_EDGE ( 'NONE', *, *, #17, .T. ) ;
#221 = SURFACE_SIDE_STYLE ('',( #272 ) ) ;
#222 = ORIENTED_EDGE ( 'NONE', *, *, #117, .T. ) ;
#223 = ORIENTED_EDGE ( 'NONE', *, *, #226, .T. ) ;
#224 = AXIS2_PLACEMENT_3D ( 'NONE', #20, #287, #163 ) ;
#225 = DIRECTION ( 'NONE',  ( 0.2500000000000002220, -0.9682458365518541443, 0.000000000000000000 ) ) ;
#226 = EDGE_CURVE ( 'NONE', #98, #296, #89, .T. ) ;
#227 = CARTESIAN_POINT ( 'NONE',  ( -3.750000000000000444, -14.52368754827781849, 1.600000000000000089 ) ) ;
#228 = CARTESIAN_POINT ( 'NONE',  ( -27.50000000000000000, 0.000000000000000000, 0.000000000000000000 ) ) ;
#229 = DIRECTION ( 'NONE',  ( -0.000000000000000000, -0.000000000000000000, -1.000000000000000000 ) ) ;
#230 = ADVANCED_FACE ( 'NONE', ( #235, #210 ), #192, .F. ) ;
#231 = CIRCLE ( 'NONE', #313, 10.00000000000000000 ) ;
#232 =( GEOMETRIC_REPRESENTATION_CONTEXT ( 3 ) GLOBAL_UNCERTAINTY_ASSIGNED_CONTEXT ( ( #53 ) ) GLOBAL_UNIT_ASSIGNED_CONTEXT ( ( #241, #194, #270 ) ) REPRESENTATION_CONTEXT ( 'NONE', 'WORKASPACE' ) );
#233 = LINE ( 'NONE', #239, #13 ) ;
#234 = PRODUCT ( '396WD1MF1', '396WD1MF1', '', ( #99 ) ) ;
#235 = FACE_OUTER_BOUND ( 'NONE', #12, .T. ) ;
#236 = CARTESIAN_POINT ( 'NONE',  ( -22.50000000000000355, 3.061616997868381662E-16, 1.600000000000000089 ) ) ;
#237 = AXIS2_PLACEMENT_3D ( 'NONE', #35, #36, #33 ) ;
#238 = PRODUCT_DEFINITION_FORMATION_WITH_SPECIFIED_SOURCE ( 'ANY', '', #234, .NOT_KNOWN. ) ;
#239 = CARTESIAN_POINT ( 'NONE',  ( -22.50000000000000355, -9.682458365518542109, 1.600000000000000089 ) ) ;
#240 = DIRECTION ( 'NONE',  ( 0.000000000000000000, 0.000000000000000000, 1.000000000000000000 ) ) ;
#241 =( LENGTH_UNIT ( ) NAMED_UNIT ( * ) SI_UNIT ( .MILLI., .METRE. ) );
#242 = AXIS2_PLACEMENT_3D ( 'NONE', #253, #15, #159 ) ;
#243 = FACE_OUTER_BOUND ( 'NONE', #244, .T. ) ;
#244 = EDGE_LOOP ( 'NONE', ( #60, #195, #77, #76 ) ) ;
#245 = DIRECTION ( 'NONE',  ( 1.000000000000000000, 0.000000000000000000, 0.000000000000000000 ) ) ;
#246 = APPLICATION_CONTEXT ( 'automotive_design' ) ;
#247 = ORIENTED_EDGE ( 'NONE', *, *, #248, .T. ) ;
#248 = EDGE_CURVE ( 'NONE', #296, #197, #291, .T. ) ;
#249 = ORIENTED_EDGE ( 'NONE', *, *, #75, .T. ) ;
#250 = CIRCLE ( 'NONE', #38, 15.00000000000000533 ) ;
#251 = ORIENTED_EDGE ( 'NONE', *, *, #140, .F. ) ;
#252 = EDGE_LOOP ( 'NONE', ( #249, #31, #199, #131 ) ) ;
#253 = CARTESIAN_POINT ( 'NONE',  ( 0.000000000000000000, 0.000000000000000000, 1.600000000000000089 ) ) ;
#254 = CLOSED_SHELL ( 'NONE', ( #153, #40, #181, #230, #34, #63, #311, #7, #264 ) ) ;
#255 = CARTESIAN_POINT ( 'NONE',  ( -25.00000000000000000, 0.000000000000000000, 1.600000000000000089 ) ) ;
#256 = ORIENTED_EDGE ( 'NONE', *, *, #146, .F. ) ;
#257 = EDGE_CURVE ( 'NONE', #32, #2, #107, .T. ) ;
#258 = CARTESIAN_POINT ( 'NONE',  ( 0.000000000000000000, 0.000000000000000000, 0.000000000000000000 ) ) ;
#259 = DIRECTION ( 'NONE',  ( 0.2500000000000002220, 0.9682458365518541443, -0.000000000000000000 ) ) ;
#260 = CIRCLE ( 'NONE', #73, 2.499999999999998668 ) ;
#261 = DIRECTION ( 'NONE',  ( 1.000000000000000000, 0.000000000000000000, -0.000000000000000000 ) ) ;
#262 = SURFACE_STYLE_FILL_AREA ( #309 ) ;
#263 = FILL_AREA_STYLE_COLOUR ( '', #314 ) ;
#264 = ADVANCED_FACE ( 'NONE', ( #121 ), #74, .F. ) ;
#265 = DIRECTION ( 'NONE',  ( -1.000000000000000000, 0.000000000000000000, 0.000000000000000000 ) ) ;
#266 = MANIFOLD_SOLID_BREP ( 'Extrusion1', #254 ) ;
#267 = ADVANCED_BREP_SHAPE_REPRESENTATION ( '396WD1MF1', ( #266, #308 ), #232 ) ;
#268 = ORIENTED_EDGE ( 'NONE', *, *, #279, .F. ) ;
#269 = EDGE_LOOP ( 'NONE', ( #104, #4, #148, #28 ) ) ;
#270 =( NAMED_UNIT ( * ) SI_UNIT ( $, .STERADIAN. ) SOLID_ANGLE_UNIT ( ) );
#271 = ORIENTED_EDGE ( 'NONE', *, *, #176, .F. ) ;
#272 = SURFACE_STYLE_FILL_AREA ( #123 ) ;
#273 = ORIENTED_EDGE ( 'NONE', *, *, #208, .F. ) ;
#274 = UNCERTAINTY_MEASURE_WITH_UNIT (LENGTH_MEASURE( 1.000000000000000082E-05 ), #42, 'distance_accuracy_value', 'NONE');
#275 = VECTOR ( 'NONE', #49, 1000.000000000000000 ) ;
#276 = DIRECTION ( 'NONE',  ( 1.000000000000000000, 0.000000000000000000, 0.000000000000000000 ) ) ;
#277 = COLOUR_RGB ( '',0.000000000000000000, 0.000000000000000000, 0.000000000000000000 ) ;
#278 = ORIENTED_EDGE ( 'NONE', *, *, #91, .T. ) ;
#279 = EDGE_CURVE ( 'NONE', #197, #169, #14, .T. ) ;
#280 = DIRECTION ( 'NONE',  ( 1.000000000000000000, 0.000000000000000000, 0.000000000000000000 ) ) ;
#281 = ORIENTED_EDGE ( 'NONE', *, *, #171, .F. ) ;
#282 = VECTOR ( 'NONE', #229, 1000.000000000000000 ) ;
#283 = CARTESIAN_POINT ( 'NONE',  ( -22.50000000000000000, 9.682458365518542109, 1.600000000000000089 ) ) ;
#284 = DIRECTION ( 'NONE',  ( 1.000000000000000000, 0.000000000000000000, 0.000000000000000000 ) ) ;
#285 = DIRECTION ( 'NONE',  ( 1.000000000000000000, 0.000000000000000000, 0.000000000000000000 ) ) ;
#286 = CARTESIAN_POINT ( 'NONE',  ( -3.750000000000000444, 14.52368754827781849, 0.000000000000000000 ) ) ;
#287 = DIRECTION ( 'NONE',  ( 0.000000000000000000, 0.000000000000000000, 1.000000000000000000 ) ) ;
#288 = CARTESIAN_POINT ( 'NONE',  ( -3.750000000000000444, -14.52368754827781849, 1.600000000000000089 ) ) ;
#289 = CARTESIAN_POINT ( 'NONE',  ( 0.000000000000000000, 0.000000000000000000, 1.600000000000000089 ) ) ;
#290 = MECHANICAL_DESIGN_GEOMETRIC_PRESENTATION_REPRESENTATION (  '', ( #178 ), #137 ) ;
#291 = LINE ( 'NONE', #286, #68 ) ;
#292 = LINE ( 'NONE', #78, #275 ) ;
#293 = EDGE_LOOP ( 'NONE', ( #247, #295, #127, #223 ) ) ;
#294 = EDGE_CURVE ( 'NONE', #129, #197, #292, .T. ) ;
#295 = ORIENTED_EDGE ( 'NONE', *, *, #294, .F. ) ;
#296 = VERTEX_POINT ( 'NONE', #144 ) ;
#297 = VERTEX_POINT ( 'NONE', #128 ) ;
#298 = ORIENTED_EDGE ( 'NONE', *, *, #257, .F. ) ;
#299 = VECTOR ( 'NONE', #187, 1000.000000000000000 ) ;
#300 =( GEOMETRIC_REPRESENTATION_CONTEXT ( 3 ) GLOBAL_UNCERTAINTY_ASSIGNED_CONTEXT ( ( #174 ) ) GLOBAL_UNIT_ASSIGNED_CONTEXT ( ( #315, #168, #54 ) ) REPRESENTATION_CONTEXT ( 'NONE', 'WORKASPACE' ) );
#301 = LINE ( 'NONE', #204, #282 ) ;
#302 = LINE ( 'NONE', #136, #206 ) ;
#303 = DIRECTION ( 'NONE',  ( 0.000000000000000000, 0.000000000000000000, 1.000000000000000000 ) ) ;
#304 = FACE_OUTER_BOUND ( 'NONE', #252, .T. ) ;
#305 = CARTESIAN_POINT ( 'NONE',  ( -27.50000000000000000, 0.000000000000000000, 1.600000000000000089 ) ) ;
#306 = DIRECTION ( 'NONE',  ( -0.000000000000000000, -0.000000000000000000, -1.000000000000000000 ) ) ;
#307 = FACE_BOUND ( 'NONE', #50, .T. ) ;
#308 = AXIS2_PLACEMENT_3D ( 'NONE', #177, #30, #245 ) ;
#309 = FILL_AREA_STYLE ('',( #263 ) ) ;
#310 =( NAMED_UNIT ( * ) PLANE_ANGLE_UNIT ( ) SI_UNIT ( $, .RADIAN. ) );
#311 = ADVANCED_FACE ( 'NONE', ( #243 ), #51, .T. ) ;
#312 = PLANE ( 'NONE',  #215 ) ;
#313 = AXIS2_PLACEMENT_3D ( 'NONE', #16, #71, #93 ) ;
#314 = COLOUR_RGB ( '',0.000000000000000000, 0.000000000000000000, 0.000000000000000000 ) ;
#315 =( LENGTH_UNIT ( ) NAMED_UNIT ( * ) SI_UNIT ( .MILLI., .METRE. ) );
ENDSEC;
END-ISO-10303-21;
